  0
SECTION
  2
HEADER
  9
$ACADVER
  1
AC1032
  9
$ACADMAINTVER
 90
      329
  9
$DWGCODEPAGE
  3
ANSI_1252
  9
$REQUIREDVERSIONS
160
                 0
  9
$INSBASE
 10
0.0
 20
0.0
 30
0.0
  9
$EXTMIN
 10
1.000000000000000E+20
 20
1.000000000000000E+20
 30
1.000000000000000E+20
  9
$EXTMAX
 10
-1.000000000000000E+20
 20
-1.000000000000000E+20
 30
-1.000000000000000E+20
  9
$LIMMIN
 10
0.0
 20
0.0
  9
$LIMMAX
 10
12.0
 20
9.0
  9
$ORTHOMODE
 70
     0
  9
$REGENMODE
 70
     1
  9
$FILLMODE
 70
     1
  9
$QTEXTMODE
 70
     0
  9
$MIRRTEXT
 70
     0
  9
$LTSCALE
 40
1.0
  9
$ATTMODE
 70
     1
  9
$TEXTSIZE
 40
0.2
  9
$TRACEWID
 40
0.05
  9
$TEXTSTYLE
  7
Standard
  9
$CLAYER
  8
0
  9
$CELTYPE
  6
ByLayer
  9
$CECOLOR
 62
   256
  9
$CELTSCALE
 40
1.0
  9
$DISPSILH
 70
     0
  9
$DIMSCALE
 40
1.0
  9
$DIMASZ
 40
0.18
  9
$DIMEXO
 40
0.0625
  9
$DIMDLI
 40
0.38
  9
$DIMRND
 40
0.0
  9
$DIMDLE
 40
0.0
  9
$DIMEXE
 40
0.18
  9
$DIMTP
 40
0.0
  9
$DIMTM
 40
0.0
  9
$DIMTXT
 40
0.18
  9
$DIMCEN
 40
0.09
  9
$DIMTSZ
 40
0.0
  9
$DIMTOL
 70
     0
  9
$DIMLIM
 70
     0
  9
$DIMTIH
 70
     1
  9
$DIMTOH
 70
     1
  9
$DIMSE1
 70
     0
  9
$DIMSE2
 70
     0
  9
$DIMTAD
 70
     0
  9
$DIMZIN
 70
     0
  9
$DIMBLK
  1

  9
$DIMASO
 70
     1
  9
$DIMSHO
 70
     1
  9
$DIMPOST
  1

  9
$DIMAPOST
  1

  9
$DIMALT
 70
     0
  9
$DIMALTD
 70
     2
  9
$DIMALTF
 40
25.4
  9
$DIMLFAC
 40
1.0
  9
$DIMTOFL
 70
     0
  9
$DIMTVP
 40
0.0
  9
$DIMTIX
 70
     0
  9
$DIMSOXD
 70
     0
  9
$DIMSAH
 70
     0
  9
$DIMBLK1
  1

  9
$DIMBLK2
  1

  9
$DIMSTYLE
  2
Standard
  9
$DIMCLRD
 70
     0
  9
$DIMCLRE
 70
     0
  9
$DIMCLRT
 70
     0
  9
$DIMTFAC
 40
1.0
  9
$DIMGAP
 40
0.09
  9
$DIMJUST
 70
     0
  9
$DIMSD1
 70
     0
  9
$DIMSD2
 70
     0
  9
$DIMTOLJ
 70
     1
  9
$DIMTZIN
 70
     0
  9
$DIMALTZ
 70
     0
  9
$DIMALTTZ
 70
     0
  9
$DIMUPT
 70
     0
  9
$DIMDEC
 70
     4
  9
$DIMTDEC
 70
     4
  9
$DIMALTU
 70
     2
  9
$DIMALTTD
 70
     2
  9
$DIMTXSTY
  7
Standard
  9
$DIMAUNIT
 70
     0
  9
$DIMADEC
 70
     0
  9
$DIMALTRND
 40
0.0
  9
$DIMAZIN
 70
     0
  9
$DIMDSEP
 70
    46
  9
$DIMATFIT
 70
     3
  9
$DIMFRAC
 70
     0
  9
$DIMLDRBLK
  1

  9
$DIMLUNIT
 70
     2
  9
$DIMLWD
 70
    -2
  9
$DIMLWE
 70
    -2
  9
$DIMTMOVE
 70
     0
  9
$DIMFXL
 40
1.0
  9
$DIMFXLON
 70
     0
  9
$DIMJOGANG
 40
0.7853981633974483
  9
$DIMTFILL
 70
     0
  9
$DIMTFILLCLR
 70
     0
  9
$DIMARCSYM
 70
     0
  9
$DIMLTYPE
  6

  9
$DIMLTEX1
  6

  9
$DIMLTEX2
  6

  9
$DIMTXTDIRECTION
 70
     0
  9
$LUNITS
 70
     2
  9
$LUPREC
 70
     4
  9
$SKETCHINC
 40
0.1
  9
$FILLETRAD
 40
0.0
  9
$AUNITS
 70
     0
  9
$AUPREC
 70
     0
  9
$MENU
  1
.
  9
$ELEVATION
 40
0.0
  9
$PELEVATION
 40
0.0
  9
$THICKNESS
 40
0.0
  9
$LIMCHECK
 70
     0
  9
$CHAMFERA
 40
0.0
  9
$CHAMFERB
 40
0.0
  9
$CHAMFERC
 40
0.0
  9
$CHAMFERD
 40
0.0
  9
$SKPOLY
 70
     0
  9
$TDCREATE
 40
2460797.508148148
  9
$TDUCREATE
 40
2460797.174814815
  9
$TDUPDATE
 40
2460797.508148148
  9
$TDUUPDATE
 40
2460797.174814815
  9
$TDINDWG
 40
0.0000000000
  9
$TDUSRTIMER
 40
0.0000000000
  9
$USRTIMER
 70
     1
  9
$ANGBASE
 50
0.0
  9
$ANGDIR
 70
     0
  9
$PDMODE
 70
     0
  9
$PDSIZE
 40
0.0
  9
$PLINEWID
 40
0.0
  9
$SPLFRAME
 70
     0
  9
$SPLINETYPE
 70
     6
  9
$SPLINESEGS
 70
     8
  9
$HANDSEED
  5
1CC
  9
$SURFTAB1
 70
     6
  9
$SURFTAB2
 70
     6
  9
$SURFTYPE
 70
     6
  9
$SURFU
 70
     6
  9
$SURFV
 70
     6
  9
$UCSBASE
  2

  9
$UCSNAME
  2

  9
$UCSORG
 10
0.0
 20
0.0
 30
0.0
  9
$UCSXDIR
 10
1.0
 20
0.0
 30
0.0
  9
$UCSYDIR
 10
0.0
 20
1.0
 30
0.0
  9
$UCSORTHOREF
  2

  9
$UCSORTHOVIEW
 70
     0
  9
$UCSORGTOP
 10
0.0
 20
0.0
 30
0.0
  9
$UCSORGBOTTOM
 10
0.0
 20
0.0
 30
0.0
  9
$UCSORGLEFT
 10
0.0
 20
0.0
 30
0.0
  9
$UCSORGRIGHT
 10
0.0
 20
0.0
 30
0.0
  9
$UCSORGFRONT
 10
0.0
 20
0.0
 30
0.0
  9
$UCSORGBACK
 10
0.0
 20
0.0
 30
0.0
  9
$PUCSBASE
  2

  9
$PUCSNAME
  2

  9
$PUCSORG
 10
0.0
 20
0.0
 30
0.0
  9
$PUCSXDIR
 10
1.0
 20
0.0
 30
0.0
  9
$PUCSYDIR
 10
0.0
 20
1.0
 30
0.0
  9
$PUCSORTHOREF
  2

  9
$PUCSORTHOVIEW
 70
     0
  9
$PUCSORGTOP
 10
0.0
 20
0.0
 30
0.0
  9
$PUCSORGBOTTOM
 10
0.0
 20
0.0
 30
0.0
  9
$PUCSORGLEFT
 10
0.0
 20
0.0
 30
0.0
  9
$PUCSORGRIGHT
 10
0.0
 20
0.0
 30
0.0
  9
$PUCSORGFRONT
 10
0.0
 20
0.0
 30
0.0
  9
$PUCSORGBACK
 10
0.0
 20
0.0
 30
0.0
  9
$USERI1
 70
     0
  9
$USERI2
 70
     0
  9
$USERI3
 70
     0
  9
$USERI4
 70
     0
  9
$USERI5
 70
     0
  9
$USERR1
 40
0.0
  9
$USERR2
 40
0.0
  9
$USERR3
 40
0.0
  9
$USERR4
 40
0.0
  9
$USERR5
 40
0.0
  9
$WORLDVIEW
 70
     1
  9
$SHADEDGE
 70
     3
  9
$SHADEDIF
 70
    70
  9
$TILEMODE
 70
     1
  9
$MAXACTVP
 70
    64
  9
$PINSBASE
 10
0.0
 20
0.0
 30
0.0
  9
$PLIMCHECK
 70
     0
  9
$PEXTMIN
 10
1.000000000000000E+20
 20
1.000000000000000E+20
 30
1.000000000000000E+20
  9
$PEXTMAX
 10
-1.000000000000000E+20
 20
-1.000000000000000E+20
 30
-1.000000000000000E+20
  9
$PLIMMIN
 10
0.0
 20
0.0
  9
$PLIMMAX
 10
12.0
 20
9.0
  9
$UNITMODE
 70
     0
  9
$VISRETAIN
 70
     1
  9
$PLINEGEN
 70
     0
  9
$PSLTSCALE
 70
     1
  9
$TREEDEPTH
 70
  3020
  9
$CMLSTYLE
  2
Standard
  9
$CMLJUST
 70
     0
  9
$CMLSCALE
 40
1.0
  9
$PROXYGRAPHICS
 70
     1
  9
$MEASUREMENT
 70
     0
  9
$CELWEIGHT
370
    -1
  9
$ENDCAPS
280
     0
  9
$JOINSTYLE
280
     0
  9
$LWDISPLAY
290
     1
  9
$INSUNITS
 70
     4
  9
$HYPERLINKBASE
  1

  9
$STYLESHEET
  1

  9
$XEDIT
290
     1
  9
$CEPSNTYPE
380
     0
  9
$PSTYLEMODE
290
     1
  9
$FINGERPRINTGUID
  2
{7A756EC2-068D-E64B-AA3F-828A173F19DD}
  9
$VERSIONGUID
  2
{2AD4F427-0ABF-3943-AB48-A44DD943BA76}
  9
$EXTNAMES
290
     1
  9
$PSVPSCALE
 40
0.0
  9
$OLESTARTUP
290
     0
  9
$SORTENTS
280
   127
  9
$INDEXCTL
280
     0
  9
$HIDETEXT
280
     1
  9
$XCLIPFRAME
280
     2
  9
$HALOGAP
280
     0
  9
$OBSCOLOR
 70
   257
  9
$OBSLTYPE
280
     0
  9
$INTERSECTIONDISPLAY
280
     0
  9
$INTERSECTIONCOLOR
 70
   257
  9
$DIMASSOC
280
     2
  9
$PROJECTNAME
  1

  9
$CAMERADISPLAY
290
     0
  9
$LENSLENGTH
 40
50.0
  9
$CAMERAHEIGHT
 40
0.0
  9
$STEPSPERSEC
 40
2.0
  9
$STEPSIZE
 40
6.0
  9
$3DDWFPREC
 40
2.0
  9
$PSOLWIDTH
 40
0.25
  9
$PSOLHEIGHT
 40
4.0
  9
$LOFTANG1
 40
1.570796326794896
  9
$LOFTANG2
 40
1.570796326794896
  9
$LOFTMAG1
 40
0.0
  9
$LOFTMAG2
 40
0.0
  9
$LOFTPARAM
 70
     7
  9
$LOFTNORMALS
280
     1
  9
$LATITUDE
 40
37.795
  9
$LONGITUDE
 40
-122.394
  9
$NORTHDIRECTION
 40
0.0
  9
$TIMEZONE
 70
 -8000
  9
$LIGHTGLYPHDISPLAY
280
     1
  9
$TILEMODELIGHTSYNCH
280
     1
  9
$CMATERIAL
347
11
  9
$SOLIDHIST
280
     0
  9
$SHOWHIST
280
     1
  9
$DWFFRAME
280
     2
  9
$DGNFRAME
280
     0
  9
$REALWORLDSCALE
290
     1
  9
$INTERFERECOLOR
 62
     1
  9
$INTERFEREOBJVS
345
33
  9
$INTERFEREVPVS
346
30
  9
$CSHADOW
280
     0
  9
$SHADOWPLANELOCATION
 40
0.0
  0
ENDSEC
  0
SECTION
  2
CLASSES
  0
CLASS
  1
ACDBDICTIONARYWDFLT
  2
AcDbDictionaryWithDefault
  3
ObjectDBX Classes
 90
        0
 91
        1
280
     0
281
     0
  0
CLASS
  1
MATERIAL
  2
AcDbMaterial
  3
ObjectDBX Classes
 90
     1153
 91
        3
280
     0
281
     0
  0
CLASS
  1
VISUALSTYLE
  2
AcDbVisualStyle
  3
ObjectDBX Classes
 90
     4095
 91
       24
280
     0
281
     0
  0
CLASS
  1
SCALE
  2
AcDbScale
  3
ObjectDBX Classes
 90
     1153
 91
       17
280
     0
281
     0
  0
CLASS
  1
TABLESTYLE
  2
AcDbTableStyle
  3
ObjectDBX Classes
 90
     4095
 91
        1
280
     0
281
     0
  0
CLASS
  1
MLEADERSTYLE
  2
AcDbMLeaderStyle
  3
ACDB_MLEADERSTYLE_CLASS
 90
     4095
 91
        1
280
     0
281
     0
  0
CLASS
  1
ACDBSECTIONVIEWSTYLE
  2
AcDbSectionViewStyle
  3
ObjectDBX Classes
 90
     1025
 91
        1
280
     0
281
     0
  0
CLASS
  1
ACDBDETAILVIEWSTYLE
  2
AcDbDetailViewStyle
  3
ObjectDBX Classes
 90
     1025
 91
        1
280
     0
281
     0
  0
CLASS
  1
DICTIONARYVAR
  2
AcDbDictionaryVar
  3
ObjectDBX Classes
 90
        0
 91
        5
280
     0
281
     0
  0
CLASS
  1
CELLSTYLEMAP
  2
AcDbCellStyleMap
  3
ObjectDBX Classes
 90
     1152
 91
        1
280
     0
281
     0
  0
ENDSEC
  0
SECTION
  2
TABLES
  0
TABLE
  2
VPORT
  5
8
330
0
100
AcDbSymbolTable
 70
     1
  0
VPORT
  5
57
330
8
100
AcDbSymbolTableRecord
100
AcDbViewportTableRecord
  2
*Active
 70
     0
 10
0.0
 20
0.0
 11
1.0
 21
1.0
 12
0.0
 22
0.0
 13
0.0
 23
0.0
 14
1.0
 24
1.0
 15
0.0
 25
0.0
 16
0.0
 26
0.0
 36
1.0
 17
534.859118784723
 27
704.6499827958236
 37
0.0
 40
3223.914033931165
 41
0.3551574030325855
 42
50.0
 43
0.0
 44
0.0
 50
0.0
 51
0.0
 71
     0
 72
   100
 73
     1
 74
     1
 75
     0
 76
     0
 77
     0
 78
     0
281
     0
 65
     1
110
0.0
120
0.0
130
0.0
111
1.0
121
0.0
131
0.0
112
0.0
122
1.0
132
0.0
 79
     0
146
0.0
 60
     3
 61
     5
292
     1
282
     1
141
0.0
142
0.0
 63
   250
421
  3355443
  0
ENDTAB
  0
TABLE
  2
LTYPE
  5
5
330
0
100
AcDbSymbolTable
 70
     7
  0
LTYPE
  5
5B
330
5
100
AcDbSymbolTableRecord
100
AcDbLinetypeTableRecord
  2
ByBlock
 70
     0
  3

 72
    65
 73
     0
 40
0.0
  0
LTYPE
  5
5C
330
5
100
AcDbSymbolTableRecord
100
AcDbLinetypeTableRecord
  2
ByLayer
 70
     0
  3

 72
    65
 73
     0
 40
0.0
  0
LTYPE
  5
5D
330
5
100
AcDbSymbolTableRecord
100
AcDbLinetypeTableRecord
  2
Continuous
 70
     0
  3
Solid line
 72
    65
 73
     0
 40
0.0
  0
LTYPE
  5
124
330
5
100
AcDbSymbolTableRecord
100
AcDbLinetypeTableRecord
  2
AI-Linetype-0
 70
     0
  3
Adobe Illustrator Linetype No. 0
 72
    65
 73
     4
 40
95.24999997618751
 49
59.53124998511719
 74
     0
 49
-11.90624999702344
 74
     0
 49
11.90624999702344
 74
     0
 49
-11.90624999702344
 74
     0
  0
LTYPE
  5
126
330
5
100
AcDbSymbolTableRecord
100
AcDbLinetypeTableRecord
  2
AI-Linetype-1
 70
     0
  3
Adobe Illustrator Linetype No. 1
 72
    65
 73
     4
 40
95.24999997618751
 49
59.53124998511719
 74
     0
 49
-11.90624999702344
 74
     0
 49
11.90624999702344
 74
     0
 49
-11.90624999702344
 74
     0
  0
LTYPE
  5
128
330
5
100
AcDbSymbolTableRecord
100
AcDbLinetypeTableRecord
  2
AI-Linetype-2
 70
     0
  3
Adobe Illustrator Linetype No. 2
 72
    65
 73
     4
 40
95.24999997618751
 49
59.53124998511719
 74
     0
 49
-11.90624999702344
 74
     0
 49
11.90624999702344
 74
     0
 49
-11.90624999702344
 74
     0
  0
LTYPE
  5
12A
330
5
100
AcDbSymbolTableRecord
100
AcDbLinetypeTableRecord
  2
AI-Linetype-3
 70
     0
  3
Adobe Illustrator Linetype No. 3
 72
    65
 73
     4
 40
95.24999997618751
 49
59.53124998511719
 74
     0
 49
-11.90624999702344
 74
     0
 49
11.90624999702344
 74
     0
 49
-11.90624999702344
 74
     0
  0
LTYPE
  5
12C
330
5
100
AcDbSymbolTableRecord
100
AcDbLinetypeTableRecord
  2
AI-Linetype-4
 70
     0
  3
Adobe Illustrator Linetype No. 4
 72
    65
 73
     4
 40
95.24999997618751
 49
59.53124998511719
 74
     0
 49
-11.90624999702344
 74
     0
 49
11.90624999702344
 74
     0
 49
-11.90624999702344
 74
     0
  0
LTYPE
  5
12E
330
5
100
AcDbSymbolTableRecord
100
AcDbLinetypeTableRecord
  2
AI-Linetype-5
 70
     0
  3
Adobe Illustrator Linetype No. 5
 72
    65
 73
     4
 40
95.24999997618751
 49
59.53124998511719
 74
     0
 49
-11.90624999702344
 74
     0
 49
11.90624999702344
 74
     0
 49
-11.90624999702344
 74
     0
  0
ENDTAB
  0
TABLE
  2
LAYER
  5
2
330
0
100
AcDbSymbolTable
 70
     6
  0
LAYER
  5
54
330
2
100
AcDbSymbolTableRecord
100
AcDbLayerTableRecord
  2
0
 70
     0
 62
     7
  6
Continuous
370
     0
390
F
347
21
348
0
  0
LAYER
  5
95
330
2
100
AcDbSymbolTableRecord
100
AcDbLayerTableRecord
  2
O
 70
     0
 62
     7
  6
Continuous
370
     0
390
F
347
21
348
0
  0
LAYER
  5
B2
330
2
100
AcDbSymbolTableRecord
100
AcDbLayerTableRecord
  2
O1
 70
     0
 62
     7
  6
Continuous
370
     0
390
F
347
21
348
0
  0
LAYER
  5
CA
330
2
100
AcDbSymbolTableRecord
100
AcDbLayerTableRecord
  2
B1
 70
     0
 62
     7
  6
Continuous
370
     0
390
F
347
21
348
0
  0
LAYER
  5
122
330
2
100
AcDbSymbolTableRecord
100
AcDbLayerTableRecord
  2
C1
 70
     0
 62
     7
  6
Continuous
370
     0
390
F
347
21
348
0
  0
LAYER
  5
12F
330
2
100
AcDbSymbolTableRecord
100
AcDbLayerTableRecord
  2
D1
 70
     0
 62
     7
  6
Continuous
370
     0
390
F
347
21
348
0
  0
ENDTAB
  0
TABLE
  2
STYLE
  5
3
330
0
100
AcDbSymbolTable
 70
     2
  0
STYLE
  5
55
330
3
100
AcDbSymbolTableRecord
100
AcDbTextStyleTableRecord
  2
Standard
 70
     0
 40
0.0
 41
1.0
 50
0.0
 71
     0
 42
0.2
  3
txt
  4

  0
STYLE
  5
5A
330
3
100
AcDbSymbolTableRecord
100
AcDbTextStyleTableRecord
  2
Annotative
 70
     0
 40
0.0
 41
1.0
 50
0.0
 71
     0
 42
0.2
  3
txt
  4

1001
AcadAnnotative
1000
AnnotativeData
1002
{
1070
     1
1070
     1
1002
}
  0
ENDTAB
  0
TABLE
  2
VIEW
  5
6
330
0
100
AcDbSymbolTable
 70
     0
  0
ENDTAB
  0
TABLE
  2
UCS
  5
7
330
0
100
AcDbSymbolTable
 70
     0
  0
ENDTAB
  0
TABLE
  2
APPID
  5
9
330
0
100
AcDbSymbolTable
 70
     2
  0
APPID
  5
56
330
9
100
AcDbSymbolTableRecord
100
AcDbRegAppTableRecord
  2
ACAD
 70
     0
  0
APPID
  5
5E
330
9
100
AcDbSymbolTableRecord
100
AcDbRegAppTableRecord
  2
AcadAnnotative
 70
     0
  0
ENDTAB
  0
TABLE
  2
DIMSTYLE
  5
A
330
0
100
AcDbSymbolTable
 70
     2
100
AcDbDimStyleTable
 71
     0
  0
DIMSTYLE
105
58
330
A
100
AcDbSymbolTableRecord
100
AcDbDimStyleTableRecord
  2
Standard
 70
     0
340
55
  0
DIMSTYLE
105
59
330
A
100
AcDbSymbolTableRecord
100
AcDbDimStyleTableRecord
  2
Annotative
 70
     0
340
55
1001
AcadAnnotative
1000
AnnotativeData
1002
{
1070
     1
1070
     1
1002
}
  0
ENDTAB
  0
TABLE
  2
BLOCK_RECORD
  5
1
330
0
100
AcDbSymbolTable
 70
    24
  0
BLOCK_RECORD
  5
70
330
1
100
AcDbSymbolTableRecord
100
AcDbBlockTableRecord
  2
*Model_Space
340
73
 70
     0
280
     1
281
     0
  0
BLOCK_RECORD
  5
6C
330
1
100
AcDbSymbolTableRecord
100
AcDbBlockTableRecord
  2
*Paper_Space
340
6F
 70
     0
280
     1
281
     0
  0
BLOCK_RECORD
  5
74
330
1
100
AcDbSymbolTableRecord
100
AcDbBlockTableRecord
  2
*Paper_Space0
340
77
 70
     0
280
     1
281
     0
  0
BLOCK_RECORD
  5
87
330
1
100
AcDbSymbolTableRecord
100
AcDbBlockTableRecord
  2
Block_0
340
0
102
{BLKREFS
331
88
102
}
 70
     0
280
     1
281
     0
  0
BLOCK_RECORD
  5
8D
330
1
100
AcDbSymbolTableRecord
100
AcDbBlockTableRecord
  2
Block_1
340
0
102
{BLKREFS
331
8E
102
}
 70
     0
280
     1
281
     0
  0
BLOCK_RECORD
  5
A0
330
1
100
AcDbSymbolTableRecord
100
AcDbBlockTableRecord
  2
Block_2
340
0
102
{BLKREFS
331
A1
102
}
 70
     0
280
     1
281
     0
  0
BLOCK_RECORD
  5
FD
330
1
100
AcDbSymbolTableRecord
100
AcDbBlockTableRecord
  2
Block_3
340
0
102
{BLKREFS
331
FE
102
}
 70
     0
280
     1
281
     0
  0
BLOCK_RECORD
  5
105
330
1
100
AcDbSymbolTableRecord
100
AcDbBlockTableRecord
  2
Block_4
340
0
102
{BLKREFS
331
106
102
}
 70
     0
280
     1
281
     0
  0
BLOCK_RECORD
  5
109
330
1
100
AcDbSymbolTableRecord
100
AcDbBlockTableRecord
  2
Block_5
340
0
102
{BLKREFS
331
10A
102
}
 70
     0
280
     1
281
     0
  0
BLOCK_RECORD
  5
10D
330
1
100
AcDbSymbolTableRecord
100
AcDbBlockTableRecord
  2
Block_6
340
0
102
{BLKREFS
331
10E
102
}
 70
     0
280
     1
281
     0
  0
BLOCK_RECORD
  5
111
330
1
100
AcDbSymbolTableRecord
100
AcDbBlockTableRecord
  2
Block_7
340
0
102
{BLKREFS
331
112
102
}
 70
     0
280
     1
281
     0
  0
BLOCK_RECORD
  5
115
330
1
100
AcDbSymbolTableRecord
100
AcDbBlockTableRecord
  2
Block_8
340
0
102
{BLKREFS
331
116
102
}
 70
     0
280
     1
281
     0
  0
BLOCK_RECORD
  5
119
330
1
100
AcDbSymbolTableRecord
100
AcDbBlockTableRecord
  2
Block_9
340
0
102
{BLKREFS
331
11A
102
}
 70
     0
280
     1
281
     0
  0
BLOCK_RECORD
  5
11D
330
1
100
AcDbSymbolTableRecord
100
AcDbBlockTableRecord
  2
Block_10
340
0
102
{BLKREFS
331
11E
102
}
 70
     0
280
     1
281
     0
  0
BLOCK_RECORD
  5
130
330
1
100
AcDbSymbolTableRecord
100
AcDbBlockTableRecord
  2
Block_11
340
0
102
{BLKREFS
331
131
102
}
 70
     0
280
     1
281
     0
  0
BLOCK_RECORD
  5
13C
330
1
100
AcDbSymbolTableRecord
100
AcDbBlockTableRecord
  2
Block_12
340
0
102
{BLKREFS
331
13D
102
}
 70
     0
280
     1
281
     0
  0
BLOCK_RECORD
  5
149
330
1
100
AcDbSymbolTableRecord
100
AcDbBlockTableRecord
  2
Block_13
340
0
102
{BLKREFS
331
14A
102
}
 70
     0
280
     1
281
     0
  0
BLOCK_RECORD
  5
155
330
1
100
AcDbSymbolTableRecord
100
AcDbBlockTableRecord
  2
Block_14
340
0
102
{BLKREFS
331
156
102
}
 70
     0
280
     1
281
     0
  0
BLOCK_RECORD
  5
161
330
1
100
AcDbSymbolTableRecord
100
AcDbBlockTableRecord
  2
Block_15
340
0
102
{BLKREFS
331
162
102
}
 70
     0
280
     1
281
     0
  0
BLOCK_RECORD
  5
170
330
1
100
AcDbSymbolTableRecord
100
AcDbBlockTableRecord
  2
Block_16
340
0
102
{BLKREFS
331
171
102
}
 70
     0
280
     1
281
     0
  0
BLOCK_RECORD
  5
17C
330
1
100
AcDbSymbolTableRecord
100
AcDbBlockTableRecord
  2
Block_17
340
0
102
{BLKREFS
331
17D
102
}
 70
     0
280
     1
281
     0
  0
BLOCK_RECORD
  5
189
330
1
100
AcDbSymbolTableRecord
100
AcDbBlockTableRecord
  2
Block_18
340
0
102
{BLKREFS
331
18A
102
}
 70
     0
280
     1
281
     0
  0
BLOCK_RECORD
  5
195
330
1
100
AcDbSymbolTableRecord
100
AcDbBlockTableRecord
  2
Block_19
340
0
102
{BLKREFS
331
196
102
}
 70
     0
280
     1
281
     0
  0
BLOCK_RECORD
  5
1A1
330
1
100
AcDbSymbolTableRecord
100
AcDbBlockTableRecord
  2
Block_20
340
0
102
{BLKREFS
331
1A2
102
}
 70
     0
280
     1
281
     0
  0
BLOCK_RECORD
  5
1AE
330
1
100
AcDbSymbolTableRecord
100
AcDbBlockTableRecord
  2
Block_21
340
0
102
{BLKREFS
331
1AF
102
}
 70
     0
280
     1
281
     0
  0
BLOCK_RECORD
  5
1BB
330
1
100
AcDbSymbolTableRecord
100
AcDbBlockTableRecord
  2
Block_22
340
0
102
{BLKREFS
331
1BC
102
}
 70
     0
280
     1
281
     0
  0
ENDTAB
  0
ENDSEC
  0
SECTION
  2
BLOCKS
  0
BLOCK
  5
71
330
70
100
AcDbEntity
  8
0
100
AcDbBlockBegin
  2
*Model_Space
 70
     0
 10
0.0
 20
0.0
 30
0.0
  3
*Model_Space
  1

  0
ENDBLK
  5
72
330
70
100
AcDbEntity
  8
0
100
AcDbBlockEnd
  0
BLOCK
  5
6D
330
6C
100
AcDbEntity
 67
     1
  8
0
100
AcDbBlockBegin
  2
*Paper_Space
 70
     0
 10
0.0
 20
0.0
 30
0.0
  3
*Paper_Space
  1

  0
ENDBLK
  5
6E
330
6C
100
AcDbEntity
 67
     1
  8
0
100
AcDbBlockEnd
  0
BLOCK
  5
75
330
74
100
AcDbEntity
 67
     1
  8
0
100
AcDbBlockBegin
  2
*Paper_Space0
 70
     0
 10
0.0
 20
0.0
 30
0.0
  3
*Paper_Space0
  1

  0
ENDBLK
  5
76
330
74
100
AcDbEntity
 67
     1
  8
0
100
AcDbBlockEnd
  0
BLOCK
  5
89
330
87
100
AcDbEntity
  8
0
100
AcDbBlockBegin
  2
Block_0
 70
     0
 10
0.0
 20
0.0
 30
0.0
  3
Block_0
  1

  0
MTEXT
  5
8B
330
87
100
AcDbEntity
  8
0
100
AcDbMText
 10
750.5462631044641
 20
1344.398214724664
 30
0.0
 40
0.2
 41
0.0
 46
0.0
 71
     7
 72
     1
  1
\C18;\c0;\FArial|b0|i0|c1;\H8.000000;\W1.000000;INTERNAL LAP
 73
     1
 44
1.0
  0
MTEXT
  5
8C
330
87
100
AcDbEntity
  8
0
100
AcDbMText
 10
770.7781892333038
 20
1331.064920050263
 30
0.0
 40
0.2
 41
0.0
 46
0.0
 71
     7
 72
     1
  1
\C18;\c0;\FArial|b0|i0|c1;\H8.000000;\W1.000000;DETAIL
 73
     1
 44
1.0
  0
ENDBLK
  5
8A
330
87
100
AcDbEntity
  8
0
100
AcDbBlockEnd
  0
BLOCK
  5
8F
330
8D
100
AcDbEntity
  8
0
100
AcDbBlockBegin
  2
Block_1
 70
     0
 10
0.0
 20
0.0
 30
0.0
  3
Block_1
  1

  0
MTEXT
  5
91
330
8D
100
AcDbEntity
  8
0
100
AcDbMText
 10
116.83394306229
 20
1324.605538270194
 30
0.0
 40
0.2
 41
0.0
 46
0.0
 71
     7
 72
     1
  1
\C18;\c0;\FArial|b0|i0|c1;\H8.000000;\W1.000000;EXTERNAL LAP
 73
     1
 44
1.0
  0
MTEXT
  5
92
330
8D
100
AcDbEntity
  8
0
100
AcDbMText
 10
138.8530447718731
 20
1311.272157468406
 30
0.0
 40
0.2
 41
0.0
 46
0.0
 71
     7
 72
     1
  1
\C18;\c0;\FArial|b0|i0|c1;\H8.000000;\W1.000000;DETAIL
 73
     1
 44
1.0
  0
ENDBLK
  5
90
330
8D
100
AcDbEntity
  8
0
100
AcDbBlockEnd
  0
BLOCK
  5
A2
330
A0
100
AcDbEntity
  8
0
100
AcDbBlockBegin
  2
Block_2
 70
     0
 10
0.0
 20
0.0
 30
0.0
  3
Block_2
  1

  0
MTEXT
  5
A4
330
A0
100
AcDbEntity
  8
O
100
AcDbMText
 10
-17.80221197954806
 20
901.4661639185137
 30
0.0
 40
0.2
 41
0.0
 46
0.0
 71
     7
 72
     1
  1
\C18;\c0;\FArial|b0|i0|c1;\H6.000000;\W1.000000;NOTE:
 73
     1
 44
1.0
  0
MTEXT
  5
A5
330
A0
100
AcDbEntity
  8
O
100
AcDbMText
 10
-12.07642694807139
 20
891.3597179303719
 30
0.0
 40
0.2
 41
0.0
 46
0.0
 71
     7
 72
     1
  1
\C18;\c0;\FArial|b0|i0|c1;\H6.000000;\W1.000000;1.
 73
     1
 44
1.0
  0
MTEXT
  5
A6
330
A0
100
AcDbEntity
  8
O
100
AcDbMText
 10
6.418798286104855
 20
891.3597179303719
 30
0.0
 40
0.2
 41
0.0
 46
0.0
 71
     7
 72
     1
  1
\C18;\c0;\FArial|b0|i0|c1;\H6.000000;\W1.000000;COIL WIDTH IS CALCULATED AT 940mm WITH SOME STRETCH ALLOWANCE
 73
     1
 44
1.0
  0
MTEXT
  5
A7
330
A0
100
AcDbEntity
  8
O
100
AcDbMText
 10
-11.40930573919954
 20
881.2533580696172
 30
0.0
 40
0.2
 41
0.0
 46
0.0
 71
     7
 72
     1
  1
\C18;\c0;\FArial|b0|i0|c1;\H6.000000;\W1.000000;2.
 73
     1
 44
1.0
  0
MTEXT
  5
A8
330
A0
100
AcDbEntity
  8
O
100
AcDbMText
 10
6.836260423010851
 20
881.2533580696172
 30
0.0
 40
0.2
 41
0.0
 46
0.0
 71
     7
 72
     1
  1
\C18;\c0;\FArial|b0|i0|c1;\H6.000000;\W1.000000;ACTUAL COIL WIDTH AND MATERIAL STRETCH WILL DETERMINE END REF
 73
     1
 44
1.0
  0
MTEXT
  5
A9
330
A0
100
AcDbEntity
  8
O
100
AcDbMText
 10
6.189603215895429
 20
871.1469120814754
 30
0.0
 40
0.2
 41
0.0
 46
0.0
 71
     7
 72
     1
  1
\C18;\c0;\FArial|b0|i0|c1;\H6.000000;\W1.000000;DIMENSION
 73
     1
 44
1.0
  0
MTEXT
  5
AA
330
A0
100
AcDbEntity
  8
O
100
AcDbMText
 10
-11.51571747174062
 20
861.0404660933337
 30
0.0
 40
0.2
 41
0.0
 46
0.0
 71
     7
 72
     1
  1
\C18;\c0;\FArial|b0|i0|c1;\H6.000000;\W1.000000;3.
 73
     1
 44
1.0
  0
MTEXT
  5
AB
330
A0
100
AcDbEntity
  8
O
100
AcDbMText
 10
6.054541342599184
 20
861.0404660933337
 30
0.0
 40
0.2
 41
0.0
 46
0.0
 71
     7
 72
     1
  1
\C18;\c0;\FArial|b0|i0|c1;\H6.000000;\W1.000000;IN ASSESSING CONFORMANCE TO DIMENSIONS, VALUES SHOULD BE AVERAGED
 73
     1
 44
1.0
  0
MTEXT
  5
AC
330
A0
100
AcDbEntity
  8
O
100
AcDbMText
 10
6.836260423010851
 20
850.9341062325789
 30
0.0
 40
0.2
 41
0.0
 46
0.0
 71
     7
 72
     1
  1
\C18;\c0;\FArial|b0|i0|c1;\H6.000000;\W1.000000;ACROSS THE PANEL
 73
     1
 44
1.0
  0
MTEXT
  5
AD
330
A0
100
AcDbEntity
  8
O
100
AcDbMText
 10
-11.27015146927414
 20
840.8276602444372
 30
0.0
 40
0.2
 41
0.0
 46
0.0
 71
     7
 72
     1
  1
\C18;\c0;\FArial|b0|i0|c1;\H6.000000;\W1.000000;4.
 73
     1
 44
1.0
  0
MTEXT
  5
AE
330
A0
100
AcDbEntity
  8
O
100
AcDbMText
 10
6.222345080409542
 20
840.8276602444372
 30
0.0
 40
0.2
 41
0.0
 46
0.0
 71
     7
 72
     1
  1
\C18;\c0;\FArial|b0|i0|c1;\H6.000000;\W1.000000;BOW, TWIST AND CAMBER TOLERANCE IS 1mm  PER 1 METER LENGTH
 73
     1
 44
1.0
  0
MTEXT
  5
AF
330
A0
100
AcDbEntity
  8
O
100
AcDbMText
 10
-11.51162507511146
 20
830.7213003836825
 30
0.0
 40
0.2
 41
0.0
 46
0.0
 71
     7
 72
     1
  1
\C18;\c0;\FArial|b0|i0|c1;\H6.000000;\W1.000000;5.
 73
     1
 44
1.0
  0
MTEXT
  5
B0
330
A0
100
AcDbEntity
  8
O
100
AcDbMText
 10
5.923573211672522
 20
830.7213003836825
 30
0.0
 40
0.2
 41
0.0
 46
0.0
 71
     7
 72
     1
  1
\C18;\c0;\FArial|b0|i0|c1;\H6.000000;\W1.000000;180° BEND RADII ARE BELOW TYPICAL MINIMUM GUARANTEED FOR FOR PAINT
 73
     1
 44
1.0
  0
MTEXT
  5
B1
330
A0
100
AcDbEntity
  8
O
100
AcDbMText
 10
6.836260423010851
 20
820.6148543955407
 30
0.0
 40
0.2
 41
0.0
 46
0.0
 71
     7
 72
     1
  1
\C18;\c0;\FArial|b0|i0|c1;\H6.000000;\W1.000000;ADHESION & CRACKING. POTENTIAL DEFECTS EXPECTED IN THESE AREAS.
 73
     1
 44
1.0
  0
ENDBLK
  5
A3
330
A0
100
AcDbEntity
  8
0
100
AcDbBlockEnd
  0
BLOCK
  5
FF
330
FD
100
AcDbEntity
  8
0
100
AcDbBlockBegin
  2
Block_3
 70
     0
 10
0.0
 20
0.0
 30
0.0
  3
Block_3
  1

  0
MTEXT
  5
101
330
FD
100
AcDbEntity
  8
B1
100
AcDbMText
 10
601.6728781997337
 20
883.7964414294415
 30
0.0
 40
0.2
 41
0.0
 46
0.0
 71
     7
 72
     1
  1
\C18;\c0;\FMyriad Pro|b0|i0|c1;\H2.826195;\W1.000000;THIS DRAWING IS THE PROPERTY OF HAYES
 73
     1
 44
1.0
  0
MTEXT
  5
102
330
FD
100
AcDbEntity
  8
B1
100
AcDbMText
 10
598.4429289275377
 20
879.0861346272336
 30
0.0
 40
0.2
 41
0.0
 46
0.0
 71
     7
 72
     1
  1
\C18;\c0;\FMyriad Pro|b0|i0|c1;\H2.826195;\W1.000000;INTERNATIONAL AND MUST NOT BE COPIED OR
 73
     1
 44
1.0
  0
MTEXT
  5
103
330
FD
100
AcDbEntity
  8
B1
100
AcDbMText
 10
597.9045896942738
 20
874.3757416976388
 30
0.0
 40
0.2
 41
0.0
 46
0.0
 71
     7
 72
     1
  1
\C18;\c0;\FMyriad Pro|b0|i0|c1;\H2.826195;\W1.000000;DISCLOSED TO ANY THIRD PARTY WITHOUT THE
 73
     1
 44
1.0
  0
MTEXT
  5
104
330
FD
100
AcDbEntity
  8
B1
100
AcDbMText
 10
608.6037643606529
 20
869.6654348954309
 30
0.0
 40
0.2
 41
0.0
 46
0.0
 71
     7
 72
     1
  1
\C18;\c0;\FMyriad Pro|b0|i0|c1;\H2.826195;\W1.000000;WRITTEN CONSENT OF THE COMPANY.
 73
     1
 44
1.0
  0
ENDBLK
  5
100
330
FD
100
AcDbEntity
  8
0
100
AcDbBlockEnd
  0
BLOCK
  5
107
330
105
100
AcDbEntity
  8
0
100
AcDbBlockBegin
  2
Block_4
 70
     0
 10
0.0
 20
0.0
 30
0.0
  3
Block_4
  1

  0
ENDBLK
  5
108
330
105
100
AcDbEntity
  8
0
100
AcDbBlockEnd
  0
BLOCK
  5
10B
330
109
100
AcDbEntity
  8
0
100
AcDbBlockBegin
  2
Block_5
 70
     0
 10
0.0
 20
0.0
 30
0.0
  3
Block_5
  1

  0
ENDBLK
  5
10C
330
109
100
AcDbEntity
  8
0
100
AcDbBlockEnd
  0
BLOCK
  5
10F
330
10D
100
AcDbEntity
  8
0
100
AcDbBlockBegin
  2
Block_6
 70
     0
 10
0.0
 20
0.0
 30
0.0
  3
Block_6
  1

  0
ENDBLK
  5
110
330
10D
100
AcDbEntity
  8
0
100
AcDbBlockEnd
  0
BLOCK
  5
113
330
111
100
AcDbEntity
  8
0
100
AcDbBlockBegin
  2
Block_7
 70
     0
 10
0.0
 20
0.0
 30
0.0
  3
Block_7
  1

  0
ENDBLK
  5
114
330
111
100
AcDbEntity
  8
0
100
AcDbBlockEnd
  0
BLOCK
  5
117
330
115
100
AcDbEntity
  8
0
100
AcDbBlockBegin
  2
Block_8
 70
     0
 10
0.0
 20
0.0
 30
0.0
  3
Block_8
  1

  0
ENDBLK
  5
118
330
115
100
AcDbEntity
  8
0
100
AcDbBlockEnd
  0
BLOCK
  5
11B
330
119
100
AcDbEntity
  8
0
100
AcDbBlockBegin
  2
Block_9
 70
     0
 10
0.0
 20
0.0
 30
0.0
  3
Block_9
  1

  0
ENDBLK
  5
11C
330
119
100
AcDbEntity
  8
0
100
AcDbBlockEnd
  0
BLOCK
  5
11F
330
11D
100
AcDbEntity
  8
0
100
AcDbBlockBegin
  2
Block_10
 70
     0
 10
0.0
 20
0.0
 30
0.0
  3
Block_10
  1

  0
ENDBLK
  5
120
330
11D
100
AcDbEntity
  8
0
100
AcDbBlockEnd
  0
BLOCK
  5
132
330
130
100
AcDbEntity
  8
0
100
AcDbBlockBegin
  2
Block_11
 70
     0
 10
0.0
 20
0.0
 30
0.0
  3
Block_11
  1

  0
LINE
  5
134
330
130
100
AcDbEntity
  8
D1
 62
     1
420
 16711680
370
    25
100
AcDbLine
 10
465.5735211530047
 20
1226.020826290185
 30
0.0
 11
465.5735211530047
 21
1249.170898212462
 31
0.0
  0
LINE
  5
135
330
130
100
AcDbEntity
  8
D1
 62
     1
420
 16711680
370
    25
100
AcDbLine
 10
365.5735211530051
 20
1226.020826290186
 30
0.0
 11
365.5735211530051
 21
1249.170898212462
 31
0.0
  0
LINE
  5
136
330
130
100
AcDbEntity
  8
D1
 62
     1
420
 16711680
370
    25
100
AcDbLine
 10
461.0735211530048
 20
1246.920898212462
 30
0.0
 11
370.0735211530049
 21
1246.920898212462
 31
0.0
  0
LWPOLYLINE
  5
137
330
130
100
AcDbEntity
  8
D1
100
AcDbPolyline
 90
        4
 70
     1
 43
0.0
 10
461.0735211530048
 20
1247.670898212462
 10
461.0735211530048
 20
1246.170898212462
 10
465.5735211530047
 20
1246.920898212462
 10
465.5735211530047
 20
1246.920898212462
  0
HATCH
  5
138
330
130
100
AcDbEntity
  8
D1
 62
     1
420
 16711680
440
 33554687
100
AcDbHatch
 10
0.0
 20
0.0
 30
0.0
210
0.0
220
0.0
230
1.0
  2
SOLID
 70
     1
 71
     1
 91
        1
 92
        1
 93
        3
 72
     1
 10
461.0735211530048
 20
1247.670898212462
 11
461.0735211530048
 21
1246.170898212462
 72
     1
 10
461.0735211530048
 20
1246.170898212462
 11
465.5735211530047
 21
1246.920898212462
 72
     1
 10
465.5735211530047
 20
1246.920898212462
 11
461.0735211530048
 21
1247.670898212462
 97
        1
330
137
 75
     2
 76
     1
 98
        1
 10
0.0
 20
0.0
450
        0
451
        0
460
0.0
461
0.0
452
        0
462
0.0
453
        0
470

  0
LWPOLYLINE
  5
139
330
130
100
AcDbEntity
  8
D1
100
AcDbPolyline
 90
        4
 70
     1
 43
0.0
 10
370.0735211530049
 20
1247.670898212462
 10
370.0735211530049
 20
1246.170898212462
 10
365.5735211530051
 20
1246.920898212462
 10
365.5735211530051
 20
1246.920898212462
  0
HATCH
  5
13A
330
130
100
AcDbEntity
  8
D1
 62
     1
420
 16711680
440
 33554687
100
AcDbHatch
 10
0.0
 20
0.0
 30
0.0
210
0.0
220
0.0
230
1.0
  2
SOLID
 70
     1
 71
     1
 91
        1
 92
        1
 93
        3
 72
     1
 10
370.0735211530049
 20
1247.670898212462
 11
370.0735211530049
 21
1246.170898212462
 72
     1
 10
370.0735211530049
 20
1246.170898212462
 11
365.5735211530051
 21
1246.920898212462
 72
     1
 10
365.5735211530051
 20
1246.920898212462
 11
370.0735211530049
 21
1247.670898212462
 97
        1
330
139
 75
     2
 76
     1
 98
        1
 10
0.0
 20
0.0
450
        0
451
        0
460
0.0
461
0.0
452
        0
462
0.0
453
        0
470

  0
MTEXT
  5
13B
330
130
100
AcDbEntity
  8
D1
100
AcDbMText
 10
410.5735177603123
 20
1249.170866251292
 30
0.0
 40
0.2
 41
0.0
 46
0.0
 71
     7
 72
     1
  1
\C18;\c0;\FMyriad Pro|b0|i0|c1;\H5.250000;\W1.000000;50
 73
     1
 44
1.0
  0
ENDBLK
  5
133
330
130
100
AcDbEntity
  8
0
100
AcDbBlockEnd
  0
BLOCK
  5
13E
330
13C
100
AcDbEntity
  8
0
100
AcDbBlockBegin
  2
Block_12
 70
     0
 10
0.0
 20
0.0
 30
0.0
  3
Block_12
  1

  0
LINE
  5
140
330
13C
100
AcDbEntity
  8
D1
 62
     1
420
 16711680
370
    25
100
AcDbLine
 10
331.031174861683
 20
1215.020826290185
 30
0.0
 11
330.4949330461378
 21
1215.020826290185
 31
0.0
  0
LINE
  5
141
330
13C
100
AcDbEntity
  8
D1
 62
     1
420
 16711680
370
    25
100
AcDbLine
 10
344.1158674443274
 20
1222.060826290186
 30
0.0
 11
330.4949330461378
 21
1222.060826290186
 31
0.0
  0
LINE
  5
142
330
13C
100
AcDbEntity
  8
D1
 62
     1
420
 16711680
370
    25
100
AcDbLine
 10
332.7449330461377
 20
1210.520826290186
 30
0.0
 11
332.7449330461377
 21
1206.020826290185
 31
0.0
  0
LINE
  5
143
330
13C
100
AcDbEntity
  8
D1
 62
     1
420
 16711680
370
    25
100
AcDbLine
 10
332.7449330461377
 20
1226.560826290186
 30
0.0
 11
332.7449330461377
 21
1246.560826290186
 31
0.0
  0
LWPOLYLINE
  5
144
330
13C
100
AcDbEntity
  8
D1
100
AcDbPolyline
 90
        4
 70
     1
 43
0.0
 10
331.9949330461379
 20
1210.520826290186
 10
333.4949330461379
 20
1210.520826290186
 10
332.7449330461377
 20
1215.020826290185
 10
332.7449330461377
 20
1215.020826290185
  0
HATCH
  5
145
330
13C
100
AcDbEntity
  8
D1
 62
     1
420
 16711680
440
 33554687
100
AcDbHatch
 10
0.0
 20
0.0
 30
0.0
210
0.0
220
0.0
230
1.0
  2
SOLID
 70
     1
 71
     1
 91
        1
 92
        1
 93
        3
 72
     1
 10
331.9949330461379
 20
1210.520826290186
 11
333.4949330461379
 21
1210.520826290186
 72
     1
 10
333.4949330461379
 20
1210.520826290186
 11
332.7449330461377
 21
1215.020826290185
 72
     1
 10
332.7449330461377
 20
1215.020826290185
 11
331.9949330461379
 21
1210.520826290186
 97
        1
330
144
 75
     2
 76
     1
 98
        1
 10
0.0
 20
0.0
450
        0
451
        0
460
0.0
461
0.0
452
        0
462
0.0
453
        0
470

  0
LWPOLYLINE
  5
146
330
13C
100
AcDbEntity
  8
D1
100
AcDbPolyline
 90
        4
 70
     1
 43
0.0
 10
331.9949330461379
 20
1226.560826290186
 10
333.4949330461379
 20
1226.560826290186
 10
332.7449330461377
 20
1222.060826290186
 10
332.7449330461377
 20
1222.060826290186
  0
HATCH
  5
147
330
13C
100
AcDbEntity
  8
D1
 62
     1
420
 16711680
440
 33554687
100
AcDbHatch
 10
0.0
 20
0.0
 30
0.0
210
0.0
220
0.0
230
1.0
  2
SOLID
 70
     1
 71
     1
 91
        1
 92
        1
 93
        3
 72
     1
 10
331.9949330461379
 20
1226.560826290186
 11
333.4949330461379
 21
1226.560826290186
 72
     1
 10
333.4949330461379
 20
1226.560826290186
 11
332.7449330461377
 21
1222.060826290186
 72
     1
 10
332.7449330461377
 20
1222.060826290186
 11
331.9949330461379
 21
1226.560826290186
 97
        1
330
146
 75
     2
 76
     1
 98
        1
 10
0.0
 20
0.0
450
        0
451
        0
460
0.0
461
0.0
452
        0
462
0.0
453
        0
470

  0
MTEXT
  5
148
330
13C
100
AcDbEntity
  8
D1
100
AcDbMText
 10
330.4949000909874
 20
1232.560769006095
 30
0.0
 40
0.2
 41
0.0
 46
0.0
 71
     7
 72
     1
  1
\C18;\c0;\FMyriad Pro|b0|i0|c1;\H5.250000;\W1.000000;3.5
 11
0.0000000000000001
 21
1.0
 31
0.0
 73
     1
 44
1.0
  0
ENDBLK
  5
13F
330
13C
100
AcDbEntity
  8
0
100
AcDbBlockEnd
  0
BLOCK
  5
14B
330
149
100
AcDbEntity
  8
0
100
AcDbBlockBegin
  2
Block_13
 70
     0
 10
0.0
 20
0.0
 30
0.0
  3
Block_13
  1

  0
LINE
  5
14D
330
149
100
AcDbEntity
  8
D1
 62
     1
420
 16711680
370
    25
100
AcDbLine
 10
586.5735211530045
 20
1226.020826290185
 30
0.0
 11
586.5735211530045
 21
1248.940220830479
 31
0.0
  0
LINE
  5
14E
330
149
100
AcDbEntity
  8
D1
 62
     1
420
 16711680
370
    25
100
AcDbLine
 10
544.5735211530048
 20
1226.020826290185
 30
0.0
 11
544.5735211530048
 21
1248.940220830479
 31
0.0
  0
LINE
  5
14F
330
149
100
AcDbEntity
  8
D1
 62
     1
420
 16711680
370
    25
100
AcDbLine
 10
582.0735211530046
 20
1246.690220830479
 30
0.0
 11
549.0735211530047
 21
1246.690220830479
 31
0.0
  0
LWPOLYLINE
  5
150
330
149
100
AcDbEntity
  8
D1
100
AcDbPolyline
 90
        4
 70
     1
 43
0.0
 10
582.0735211530046
 20
1247.440220830479
 10
582.0735211530046
 20
1245.940220830479
 10
586.5735211530045
 20
1246.690220830479
 10
586.5735211530045
 20
1246.690220830479
  0
HATCH
  5
151
330
149
100
AcDbEntity
  8
D1
 62
     1
420
 16711680
440
 33554687
100
AcDbHatch
 10
0.0
 20
0.0
 30
0.0
210
0.0
220
0.0
230
1.0
  2
SOLID
 70
     1
 71
     1
 91
        1
 92
        1
 93
        3
 72
     1
 10
582.0735211530046
 20
1247.440220830479
 11
582.0735211530046
 21
1245.940220830479
 72
     1
 10
582.0735211530046
 20
1245.940220830479
 11
586.5735211530045
 21
1246.690220830479
 72
     1
 10
586.5735211530045
 20
1246.690220830479
 11
582.0735211530046
 21
1247.440220830479
 97
        1
330
150
 75
     2
 76
     1
 98
        1
 10
0.0
 20
0.0
450
        0
451
        0
460
0.0
461
0.0
452
        0
462
0.0
453
        0
470

  0
LWPOLYLINE
  5
152
330
149
100
AcDbEntity
  8
D1
100
AcDbPolyline
 90
        4
 70
     1
 43
0.0
 10
549.0735211530047
 20
1247.440220830479
 10
549.0735211530047
 20
1245.940220830479
 10
544.5735211530048
 20
1246.690220830479
 10
544.5735211530048
 20
1246.690220830479
  0
HATCH
  5
153
330
149
100
AcDbEntity
  8
D1
 62
     1
420
 16711680
440
 33554687
100
AcDbHatch
 10
0.0
 20
0.0
 30
0.0
210
0.0
220
0.0
230
1.0
  2
SOLID
 70
     1
 71
     1
 91
        1
 92
        1
 93
        3
 72
     1
 10
549.0735211530047
 20
1247.440220830479
 11
549.0735211530047
 21
1245.940220830479
 72
     1
 10
549.0735211530047
 20
1245.940220830479
 11
544.5735211530048
 21
1246.690220830479
 72
     1
 10
544.5735211530048
 20
1246.690220830479
 11
549.0735211530047
 21
1247.440220830479
 97
        1
330
152
 75
     2
 76
     1
 98
        1
 10
0.0
 20
0.0
450
        0
451
        0
460
0.0
461
0.0
452
        0
462
0.0
453
        0
470

  0
MTEXT
  5
154
330
149
100
AcDbEntity
  8
D1
100
AcDbMText
 10
561.3235323032455
 20
1248.940217108555
 30
0.0
 40
0.2
 41
0.0
 46
0.0
 71
     7
 72
     1
  1
\C18;\c0;\FMyriad Pro|b0|i0|c1;\H5.250000;\W1.000000;21
 73
     1
 44
1.0
  0
ENDBLK
  5
14C
330
149
100
AcDbEntity
  8
0
100
AcDbBlockEnd
  0
BLOCK
  5
157
330
155
100
AcDbEntity
  8
0
100
AcDbBlockBegin
  2
Block_14
 70
     0
 10
0.0
 20
0.0
 30
0.0
  3
Block_14
  1

  0
LINE
  5
159
330
155
100
AcDbEntity
  8
D1
 62
     1
420
 16711680
370
    25
100
AcDbLine
 10
536.5735211530053
 20
1212.020826290185
 30
0.0
 11
536.5735211530053
 21
1197.021045908274
 31
0.0
  0
LINE
  5
15A
330
155
100
AcDbEntity
  8
D1
 62
     1
420
 16711680
370
    25
100
AcDbLine
 10
594.5735211530047
 20
1212.020826290185
 30
0.0
 11
594.5735211530047
 21
1197.021045908274
 31
0.0
  0
LINE
  5
15B
330
155
100
AcDbEntity
  8
D1
 62
     1
420
 16711680
370
    25
100
AcDbLine
 10
541.0735211530051
 20
1199.271045908274
 30
0.0
 11
590.073521153005
 21
1199.271045908274
 31
0.0
  0
LWPOLYLINE
  5
15C
330
155
100
AcDbEntity
  8
D1
100
AcDbPolyline
 90
        4
 70
     1
 43
0.0
 10
541.0735211530051
 20
1200.021045908274
 10
541.0735211530051
 20
1198.521045908274
 10
536.5735211530053
 20
1199.271045908274
 10
536.5735211530053
 20
1199.271045908274
  0
HATCH
  5
15D
330
155
100
AcDbEntity
  8
D1
 62
     1
420
 16711680
440
 33554687
100
AcDbHatch
 10
0.0
 20
0.0
 30
0.0
210
0.0
220
0.0
230
1.0
  2
SOLID
 70
     1
 71
     1
 91
        1
 92
        1
 93
        3
 72
     1
 10
541.0735211530051
 20
1200.021045908274
 11
541.0735211530051
 21
1198.521045908274
 72
     1
 10
541.0735211530051
 20
1198.521045908274
 11
536.5735211530053
 21
1199.271045908274
 72
     1
 10
536.5735211530053
 20
1199.271045908274
 11
541.0735211530051
 21
1200.021045908274
 97
        1
330
15C
 75
     2
 76
     1
 98
        1
 10
0.0
 20
0.0
450
        0
451
        0
460
0.0
461
0.0
452
        0
462
0.0
453
        0
470

  0
LWPOLYLINE
  5
15E
330
155
100
AcDbEntity
  8
D1
100
AcDbPolyline
 90
        4
 70
     1
 43
0.0
 10
590.073521153005
 20
1200.021045908274
 10
590.073521153005
 20
1198.521045908274
 10
594.5735211530047
 20
1199.271045908274
 10
594.5735211530047
 20
1199.271045908274
  0
HATCH
  5
15F
330
155
100
AcDbEntity
  8
D1
 62
     1
420
 16711680
440
 33554687
100
AcDbHatch
 10
0.0
 20
0.0
 30
0.0
210
0.0
220
0.0
230
1.0
  2
SOLID
 70
     1
 71
     1
 91
        1
 92
        1
 93
        3
 72
     1
 10
590.073521153005
 20
1200.021045908274
 11
590.073521153005
 21
1198.521045908274
 72
     1
 10
590.073521153005
 20
1198.521045908274
 11
594.5735211530047
 21
1199.271045908274
 72
     1
 10
594.5735211530047
 20
1199.271045908274
 11
590.073521153005
 21
1200.021045908274
 97
        1
330
15E
 75
     2
 76
     1
 98
        1
 10
0.0
 20
0.0
450
        0
451
        0
460
0.0
461
0.0
452
        0
462
0.0
453
        0
470

  0
MTEXT
  5
160
330
155
100
AcDbEntity
  8
D1
100
AcDbMText
 10
560.698505854834
 20
1201.521061575705
 30
0.0
 40
0.2
 41
0.0
 46
0.0
 71
     7
 72
     1
  1
\C18;\c0;\FMyriad Pro|b0|i0|c1;\H5.250000;\W1.000000;29
 73
     1
 44
1.0
  0
ENDBLK
  5
158
330
155
100
AcDbEntity
  8
0
100
AcDbBlockEnd
  0
BLOCK
  5
163
330
161
100
AcDbEntity
  8
0
100
AcDbBlockBegin
  2
Block_15
 70
     0
 10
0.0
 20
0.0
 30
0.0
  3
Block_15
  1

  0
LINE
  5
165
330
161
100
AcDbEntity
  8
D1
 62
     1
420
 16711680
370
    25
100
AcDbLine
 10
485.6048446561405
 20
1222.581835673556
 30
0.0
 11
478.0147734397615
 21
1228.980616999604
 31
0.0
  0
LINE
  5
166
330
161
100
AcDbEntity
  8
D1
 62
     1
420
 16711680
370
    25
100
AcDbLine
 10
491.5735211530043
 20
1215.020826290185
 30
0.0
 11
472.9155461211231
 21
1215.020826290185
 31
0.0
  0
SPLINE
  5
167
330
161
100
AcDbEntity
  8
D1
 62
     1
420
 16711680
370
    25
100
AcDbSpline
210
0.0
220
0.0
230
1.0
 70
     8
 71
     3
 72
     8
 73
     4
 74
     0
 42
0.0000000001
 43
0.0000000001
 40
0.0
 40
0.0
 40
0.0
 40
0.0
 40
1.0
 40
1.0
 40
1.0
 40
1.0
 10
486.9734026176062
 20
1232.878813105222
 30
0.0
 10
484.1748605734503
 20
1231.687791324201
 30
0.0
 10
481.6954074023032
 20
1229.855719330511
 30
0.0
 10
479.7350257856042
 20
1227.530364653761
 30
0.0
  0
LINE
  5
168
330
161
100
AcDbEntity
  8
D1
 62
     1
420
 16711680
370
    25
100
AcDbLine
 10
486.9734026176062
 20
1232.878813105222
 30
0.0
 11
500.7754505791023
 21
1238.752778722125
 31
0.0
  0
SPLINE
  5
169
330
161
100
AcDbEntity
  8
D1
 62
     1
420
 16711680
370
    25
100
AcDbSpline
210
0.0
220
0.0
230
1.0
 70
     8
 71
     3
 72
     8
 73
     4
 74
     0
 42
0.0000000001
 43
0.0000000001
 40
0.0
 40
0.0
 40
0.0
 40
0.0
 40
1.0
 40
1.0
 40
1.0
 40
1.0
 10
486.9160498077085
 20
1232.854295594673
 30
0.0
 10
485.5330773526476
 20
1232.260464312316
 30
0.0
 10
484.2238748851149
 20
1231.50777765698
 30
0.0
 10
483.0148365500498
 20
1230.611410149924
 30
0.0
  0
SPLINE
  5
16A
330
161
100
AcDbEntity
  8
D1
 62
     1
420
 16711680
370
    25
100
AcDbSpline
210
0.0
220
0.0
230
1.0
 70
     8
 71
     3
 72
     8
 73
     4
 74
     0
 42
0.0000000001
 43
0.0000000001
 40
0.0
 40
0.0
 40
0.0
 40
0.0
 40
1.0
 40
1.0
 40
1.0
 40
1.0
 10
475.6872388780108
 20
1210.551168957972
 30
0.0
 10
476.0338575234619
 20
1209.086551629798
 30
0.0
 10
476.5496677582938
 20
1207.667224992354
 30
0.0
 10
477.2242706026405
 20
1206.321803346266
 30
0.0
  0
LWPOLYLINE
  5
16B
330
161
100
AcDbEntity
  8
D1
100
AcDbPolyline
 90
        4
 70
     1
 43
0.0
 10
483.5283441327435
 20
1230.064775022517
 10
482.5013289673556
 20
1231.158045277332
 10
479.7350257856042
 20
1227.530364653761
 10
479.7350257856042
 20
1227.530364653761
  0
HATCH
  5
16C
330
161
100
AcDbEntity
  8
D1
 62
     1
420
 16711680
440
 33554687
100
AcDbHatch
 10
0.0
 20
0.0
 30
0.0
210
0.0
220
0.0
230
1.0
  2
SOLID
 70
     1
 71
     1
 91
        1
 92
        1
 93
        3
 72
     1
 10
483.5283441327435
 20
1230.064775022517
 11
482.5013289673556
 21
1231.158045277332
 72
     1
 10
482.5013289673556
 20
1231.158045277332
 11
479.7350257856042
 21
1227.530364653761
 72
     1
 10
479.7350257856042
 20
1227.530364653761
 11
483.5283441327435
 21
1230.064775022517
 97
        1
330
16B
 75
     2
 76
     1
 98
        1
 10
0.0
 20
0.0
450
        0
451
        0
460
0.0
461
0.0
452
        0
462
0.0
453
        0
470

  0
LWPOLYLINE
  5
16D
330
161
100
AcDbEntity
  8
D1
100
AcDbPolyline
 90
        4
 70
     1
 43
0.0
 10
474.942295989309
 20
1210.464220165157
 10
476.4321817667134
 20
1210.638117750787
 10
475.1655461211226
 20
1215.020826290185
 10
475.1655461211226
 20
1215.020826290185
  0
HATCH
  5
16E
330
161
100
AcDbEntity
  8
D1
 62
     1
420
 16711680
440
 33554687
100
AcDbHatch
 10
0.0
 20
0.0
 30
0.0
210
0.0
220
0.0
230
1.0
  2
SOLID
 70
     1
 71
     1
 91
        1
 92
        1
 93
        3
 72
     1
 10
474.942295989309
 20
1210.464220165157
 11
476.4321817667134
 21
1210.638117750787
 72
     1
 10
476.4321817667134
 20
1210.638117750787
 11
475.1655461211226
 21
1215.020826290185
 72
     1
 10
475.1655461211226
 20
1215.020826290185
 11
474.942295989309
 21
1210.464220165157
 97
        1
330
16D
 75
     2
 76
     1
 98
        1
 10
0.0
 20
0.0
450
        0
451
        0
460
0.0
461
0.0
452
        0
462
0.0
453
        0
470

  0
MTEXT
  5
16F
330
161
100
AcDbEntity
  8
D1
100
AcDbMText
 10
487.4725200033752
 20
1235.536619892535
 30
0.0
 40
0.2
 41
0.0
 46
0.0
 71
     7
 72
     1
  1
\C18;\c0;\FMyriad Pro|b0|i0|c1;\H5.250000;\W1.000000;40°
 11
0.9201365241074476
 21
0.3915977234400939
 31
0.0
 73
     1
 44
1.0
  0
ENDBLK
  5
164
330
161
100
AcDbEntity
  8
0
100
AcDbBlockEnd
  0
BLOCK
  5
172
330
170
100
AcDbEntity
  8
0
100
AcDbBlockBegin
  2
Block_16
 70
     0
 10
0.0
 20
0.0
 30
0.0
  3
Block_16
  1

  0
LINE
  5
174
330
170
100
AcDbEntity
  8
D1
 62
     1
420
 16711680
370
    25
100
AcDbLine
 10
40.3060598835442
 20
1043.944119259801
 30
0.0
 11
40.3060598835442
 21
1060.658173234005
 31
0.0
  0
LINE
  5
175
330
170
100
AcDbEntity
  8
D1
 62
     1
420
 16711680
370
    25
100
AcDbLine
 10
890.3060598835418
 20
1045.844119259801
 30
0.0
 11
890.3060598835418
 21
1060.658173234005
 31
0.0
  0
LINE
  5
176
330
170
100
AcDbEntity
  8
D1
 62
     1
420
 16711680
370
    25
100
AcDbLine
 10
47.80605988354415
 20
1056.908173234005
 30
0.0
 11
882.8060598835419
 21
1056.908173234005
 31
0.0
  0
LWPOLYLINE
  5
177
330
170
100
AcDbEntity
  8
D1
100
AcDbPolyline
 90
        4
 70
     1
 43
0.0
 10
47.80605988354415
 20
1058.158173234005
 10
47.80605988354415
 20
1055.658173234005
 10
40.3060598835442
 20
1056.908173234005
 10
40.3060598835442
 20
1056.908173234005
  0
HATCH
  5
178
330
170
100
AcDbEntity
  8
D1
 62
     1
420
 16711680
440
 33554687
100
AcDbHatch
 10
0.0
 20
0.0
 30
0.0
210
0.0
220
0.0
230
1.0
  2
SOLID
 70
     1
 71
     1
 91
        1
 92
        1
 93
        3
 72
     1
 10
47.80605988354415
 20
1058.158173234005
 11
47.80605988354415
 21
1055.658173234005
 72
     1
 10
47.80605988354415
 20
1055.658173234005
 11
40.3060598835442
 21
1056.908173234005
 72
     1
 10
40.3060598835442
 20
1056.908173234005
 11
47.80605988354415
 21
1058.158173234005
 97
        1
330
177
 75
     2
 76
     1
 98
        1
 10
0.0
 20
0.0
450
        0
451
        0
460
0.0
461
0.0
452
        0
462
0.0
453
        0
470

  0
LWPOLYLINE
  5
179
330
170
100
AcDbEntity
  8
D1
100
AcDbPolyline
 90
        4
 70
     1
 43
0.0
 10
882.8060598835419
 20
1058.158173234005
 10
882.8060598835419
 20
1055.658173234005
 10
890.3060598835418
 20
1056.908173234005
 10
890.3060598835418
 20
1056.908173234005
  0
HATCH
  5
17A
330
170
100
AcDbEntity
  8
D1
 62
     1
420
 16711680
440
 33554687
100
AcDbHatch
 10
0.0
 20
0.0
 30
0.0
210
0.0
220
0.0
230
1.0
  2
SOLID
 70
     1
 71
     1
 91
        1
 92
        1
 93
        3
 72
     1
 10
882.8060598835419
 20
1058.158173234005
 11
882.8060598835419
 21
1055.658173234005
 72
     1
 10
882.8060598835419
 20
1055.658173234005
 11
890.3060598835418
 21
1056.908173234005
 72
     1
 10
890.3060598835418
 20
1056.908173234005
 11
882.8060598835419
 21
1058.158173234005
 97
        1
330
179
 75
     2
 76
     1
 98
        1
 10
0.0
 20
0.0
450
        0
451
        0
460
0.0
461
0.0
452
        0
462
0.0
453
        0
470

  0
MTEXT
  5
17B
330
170
100
AcDbEntity
  8
D1
100
AcDbMText
 10
390.5144062337516
 20
1060.658169629584
 30
0.0
 40
0.2
 41
0.0
 46
0.0
 71
     7
 72
     1
  1
\C18;\c0;\FMyriad Pro|b0|i0|c1;\H8.750000;\W1.000000;850 EFFECTIVE COVER
 73
     1
 44
1.0
  0
ENDBLK
  5
173
330
170
100
AcDbEntity
  8
0
100
AcDbBlockEnd
  0
BLOCK
  5
17E
330
17C
100
AcDbEntity
  8
0
100
AcDbBlockBegin
  2
Block_17
 70
     0
 10
0.0
 20
0.0
 30
0.0
  3
Block_17
  1

  0
LINE
  5
180
330
17C
100
AcDbEntity
  8
D1
 62
     1
420
 16711680
370
    25
100
AcDbLine
 10
769.1158674443272
 20
1365.020826290185
 30
0.0
 11
709.1904001931867
 21
1365.020826290185
 31
0.0
  0
LINE
  5
181
330
17C
100
AcDbEntity
  8
D1
 62
     1
420
 16711680
370
    25
100
AcDbLine
 10
721.1158674443269
 20
1368.820826290182
 30
0.0
 11
709.1904001931867
 21
1368.820826290182
 31
0.0
  0
LINE
  5
182
330
17C
100
AcDbEntity
  8
D1
 62
     1
420
 16711680
370
    25
100
AcDbLine
 10
711.4404001931863
 20
1360.520826290185
 30
0.0
 11
711.4404001931863
 21
1356.020826290185
 31
0.0
  0
LINE
  5
183
330
17C
100
AcDbEntity
  8
D1
 62
     1
420
 16711680
370
    25
100
AcDbLine
 10
711.4404001931863
 20
1373.320826290182
 30
0.0
 11
711.4404001931863
 21
1392.320826290182
 31
0.0
  0
LWPOLYLINE
  5
184
330
17C
100
AcDbEntity
  8
D1
100
AcDbPolyline
 90
        4
 70
     1
 43
0.0
 10
710.6904001931864
 20
1360.520826290185
 10
712.1904001931868
 20
1360.520826290185
 10
711.4404001931863
 20
1365.020826290185
 10
711.4404001931863
 20
1365.020826290185
  0
HATCH
  5
185
330
17C
100
AcDbEntity
  8
D1
 62
     1
420
 16711680
440
 33554687
100
AcDbHatch
 10
0.0
 20
0.0
 30
0.0
210
0.0
220
0.0
230
1.0
  2
SOLID
 70
     1
 71
     1
 91
        1
 92
        1
 93
        3
 72
     1
 10
710.6904001931864
 20
1360.520826290185
 11
712.1904001931868
 21
1360.520826290185
 72
     1
 10
712.1904001931868
 20
1360.520826290185
 11
711.4404001931863
 21
1365.020826290185
 72
     1
 10
711.4404001931863
 20
1365.020826290185
 11
710.6904001931864
 21
1360.520826290185
 97
        1
330
184
 75
     2
 76
     1
 98
        1
 10
0.0
 20
0.0
450
        0
451
        0
460
0.0
461
0.0
452
        0
462
0.0
453
        0
470

  0
LWPOLYLINE
  5
186
330
17C
100
AcDbEntity
  8
D1
100
AcDbPolyline
 90
        4
 70
     1
 43
0.0
 10
710.6904001931864
 20
1373.320826290182
 10
712.1904001931868
 20
1373.320826290182
 10
711.4404001931863
 20
1368.820826290182
 10
711.4404001931863
 20
1368.820826290182
  0
HATCH
  5
187
330
17C
100
AcDbEntity
  8
D1
 62
     1
420
 16711680
440
 33554687
100
AcDbHatch
 10
0.0
 20
0.0
 30
0.0
210
0.0
220
0.0
230
1.0
  2
SOLID
 70
     1
 71
     1
 91
        1
 92
        1
 93
        3
 72
     1
 10
710.6904001931864
 20
1373.320826290182
 11
712.1904001931868
 21
1373.320826290182
 72
     1
 10
712.1904001931868
 20
1373.320826290182
 11
711.4404001931863
 21
1368.820826290182
 72
     1
 10
711.4404001931863
 20
1368.820826290182
 11
710.6904001931864
 21
1373.320826290182
 97
        1
330
186
 75
     2
 76
     1
 98
        1
 10
0.0
 20
0.0
450
        0
451
        0
460
0.0
461
0.0
452
        0
462
0.0
453
        0
470

  0
MTEXT
  5
188
330
17C
100
AcDbEntity
  8
D1
100
AcDbMText
 10
709.1903894982666
 20
1378.570805861954
 30
0.0
 40
0.2
 41
0.0
 46
0.0
 71
     7
 72
     1
  1
\C18;\c0;\FMyriad Pro|b0|i0|c1;\H5.250000;\W1.000000;1.9
 11
0.0000000000000001
 21
1.0
 31
0.0
 73
     1
 44
1.0
  0
ENDBLK
  5
17F
330
17C
100
AcDbEntity
  8
0
100
AcDbBlockEnd
  0
BLOCK
  5
18B
330
189
100
AcDbEntity
  8
0
100
AcDbBlockBegin
  2
Block_18
 70
     0
 10
0.0
 20
0.0
 30
0.0
  3
Block_18
  1

  0
LINE
  5
18D
330
189
100
AcDbEntity
  8
D1
 62
     1
420
 16711680
370
    25
100
AcDbLine
 10
765.4167265210308
 20
1372.780826290182
 30
0.0
 11
765.4167265210308
 21
1384.087044424348
 31
0.0
  0
LINE
  5
18E
330
189
100
AcDbEntity
  8
D1
 62
     1
420
 16711680
370
    25
100
AcDbLine
 10
724.115867444327
 20
1372.780826290182
 30
0.0
 11
724.115867444327
 21
1384.087044424348
 31
0.0
  0
LINE
  5
18F
330
189
100
AcDbEntity
  8
D1
 62
     1
420
 16711680
370
    25
100
AcDbLine
 10
760.9167265210309
 20
1381.837044424347
 30
0.0
 11
728.6158674443267
 21
1381.837044424347
 31
0.0
  0
LWPOLYLINE
  5
190
330
189
100
AcDbEntity
  8
D1
100
AcDbPolyline
 90
        4
 70
     1
 43
0.0
 10
760.9167265210309
 20
1382.587044424347
 10
760.9167265210309
 20
1381.087044424348
 10
765.4167265210308
 20
1381.837044424347
 10
765.4167265210308
 20
1381.837044424347
  0
HATCH
  5
191
330
189
100
AcDbEntity
  8
D1
 62
     1
420
 16711680
440
 33554687
100
AcDbHatch
 10
0.0
 20
0.0
 30
0.0
210
0.0
220
0.0
230
1.0
  2
SOLID
 70
     1
 71
     1
 91
        1
 92
        1
 93
        3
 72
     1
 10
760.9167265210309
 20
1382.587044424347
 11
760.9167265210309
 21
1381.087044424348
 72
     1
 10
760.9167265210309
 20
1381.087044424348
 11
765.4167265210308
 21
1381.837044424347
 72
     1
 10
765.4167265210308
 20
1381.837044424347
 11
760.9167265210309
 21
1382.587044424347
 97
        1
330
190
 75
     2
 76
     1
 98
        1
 10
0.0
 20
0.0
450
        0
451
        0
460
0.0
461
0.0
452
        0
462
0.0
453
        0
470

  0
LWPOLYLINE
  5
192
330
189
100
AcDbEntity
  8
D1
100
AcDbPolyline
 90
        4
 70
     1
 43
0.0
 10
728.6158674443267
 20
1382.587044424347
 10
728.6158674443267
 20
1381.087044424348
 10
724.115867444327
 20
1381.837044424347
 10
724.115867444327
 20
1381.837044424347
  0
HATCH
  5
193
330
189
100
AcDbEntity
  8
D1
 62
     1
420
 16711680
440
 33554687
100
AcDbHatch
 10
0.0
 20
0.0
 30
0.0
210
0.0
220
0.0
230
1.0
  2
SOLID
 70
     1
 71
     1
 91
        1
 92
        1
 93
        3
 72
     1
 10
728.6158674443267
 20
1382.587044424347
 11
728.6158674443267
 21
1381.087044424348
 72
     1
 10
728.6158674443267
 20
1381.087044424348
 11
724.115867444327
 21
1381.837044424347
 72
     1
 10
724.115867444327
 20
1381.837044424347
 11
728.6158674443267
 21
1382.587044424347
 97
        1
330
192
 75
     2
 76
     1
 98
        1
 10
0.0
 20
0.0
450
        0
451
        0
460
0.0
461
0.0
452
        0
462
0.0
453
        0
470

  0
MTEXT
  5
194
330
189
100
AcDbEntity
  8
D1
100
AcDbMText
 10
725.8912650094994
 20
1384.087006625549
 30
0.0
 40
0.2
 41
0.0
 46
0.0
 71
     7
 72
     1
  1
\C18;\c0;\FMyriad Pro|b0|i0|c1;\H5.250000;\W1.000000;20.7 REF
 73
     1
 44
1.0
  0
ENDBLK
  5
18C
330
189
100
AcDbEntity
  8
0
100
AcDbBlockEnd
  0
BLOCK
  5
197
330
195
100
AcDbEntity
  8
0
100
AcDbBlockBegin
  2
Block_19
 70
     0
 10
0.0
 20
0.0
 30
0.0
  3
Block_19
  1

  0
LINE
  5
199
330
195
100
AcDbEntity
  8
D1
 62
     1
420
 16711680
370
    25
100
AcDbLine
 10
215.3462353504115
 20
1374.460826290183
 30
0.0
 11
215.3462353504115
 21
1388.502410963622
 31
0.0
  0
LINE
  5
19A
330
195
100
AcDbEntity
  8
D1
 62
     1
420
 16711680
370
    25
100
AcDbLine
 10
169.5735211530048
 20
1376.020826290183
 30
0.0
 11
169.5735211530048
 21
1388.502410963622
 31
0.0
  0
LINE
  5
19B
330
195
100
AcDbEntity
  8
D1
 62
     1
420
 16711680
370
    25
100
AcDbLine
 10
210.8462353504114
 20
1386.252410963622
 30
0.0
 11
174.073521153005
 21
1386.252410963622
 31
0.0
  0
LWPOLYLINE
  5
19C
330
195
100
AcDbEntity
  8
D1
100
AcDbPolyline
 90
        4
 70
     1
 43
0.0
 10
210.8462353504114
 20
1387.002410963622
 10
210.8462353504114
 20
1385.502410963622
 10
215.3462353504115
 20
1386.252410963622
 10
215.3462353504115
 20
1386.252410963622
  0
HATCH
  5
19D
330
195
100
AcDbEntity
  8
D1
 62
     1
420
 16711680
440
 33554687
100
AcDbHatch
 10
0.0
 20
0.0
 30
0.0
210
0.0
220
0.0
230
1.0
  2
SOLID
 70
     1
 71
     1
 91
        1
 92
        1
 93
        3
 72
     1
 10
210.8462353504114
 20
1387.002410963622
 11
210.8462353504114
 21
1385.502410963622
 72
     1
 10
210.8462353504114
 20
1385.502410963622
 11
215.3462353504115
 21
1386.252410963622
 72
     1
 10
215.3462353504115
 20
1386.252410963622
 11
210.8462353504114
 21
1387.002410963622
 97
        1
330
19C
 75
     2
 76
     1
 98
        1
 10
0.0
 20
0.0
450
        0
451
        0
460
0.0
461
0.0
452
        0
462
0.0
453
        0
470

  0
LWPOLYLINE
  5
19E
330
195
100
AcDbEntity
  8
D1
100
AcDbPolyline
 90
        4
 70
     1
 43
0.0
 10
174.073521153005
 20
1387.002410963622
 10
174.073521153005
 20
1385.502410963622
 10
169.5735211530048
 20
1386.252410963622
 10
169.5735211530048
 20
1386.252410963622
  0
HATCH
  5
19F
330
195
100
AcDbEntity
  8
D1
 62
     1
420
 16711680
440
 33554687
100
AcDbHatch
 10
0.0
 20
0.0
 30
0.0
210
0.0
220
0.0
230
1.0
  2
SOLID
 70
     1
 71
     1
 91
        1
 92
        1
 93
        3
 72
     1
 10
174.073521153005
 20
1387.002410963622
 11
174.073521153005
 21
1385.502410963622
 72
     1
 10
174.073521153005
 20
1385.502410963622
 11
169.5735211530048
 21
1386.252410963622
 72
     1
 10
169.5735211530048
 20
1386.252410963622
 11
174.073521153005
 21
1387.002410963622
 97
        1
330
19E
 75
     2
 76
     1
 98
        1
 10
0.0
 20
0.0
450
        0
451
        0
460
0.0
461
0.0
452
        0
462
0.0
453
        0
470

  0
MTEXT
  5
1A0
330
195
100
AcDbEntity
  8
D1
100
AcDbMText
 10
183.834881376296
 20
1388.50241325422
 30
0.0
 40
0.2
 41
0.0
 46
0.0
 71
     7
 72
     1
  1
\C18;\c0;\FMyriad Pro|b0|i0|c1;\H5.250000;\W1.000000;22.9
 73
     1
 44
1.0
  0
ENDBLK
  5
198
330
195
100
AcDbEntity
  8
0
100
AcDbBlockEnd
  0
BLOCK
  5
1A3
330
1A1
100
AcDbEntity
  8
0
100
AcDbBlockBegin
  2
Block_20
 70
     0
 10
0.0
 20
0.0
 30
0.0
  3
Block_20
  1

  0
LINE
  5
1A5
330
1A1
100
AcDbEntity
  8
D1
 62
     1
420
 16711680
370
    25
100
AcDbLine
 10
217.244292717398
 20
1372.959815173672
 30
0.0
 11
234.6926183294282
 21
1372.959815173672
 31
0.0
  0
LINE
  5
1A6
330
1A1
100
AcDbEntity
  8
D1
 62
     1
420
 16711680
370
    25
100
AcDbLine
 10
206.3862353504111
 20
1367.740826290183
 30
0.0
 11
234.6926183294282
 21
1367.740826290183
 31
0.0
  0
LINE
  5
1A7
330
1A1
100
AcDbEntity
  8
D1
 62
     1
420
 16711680
370
    25
100
AcDbLine
 10
232.442618329428
 20
1363.240826290183
 30
0.0
 11
232.442618329428
 21
1358.740826290183
 31
0.0
  0
LINE
  5
1A8
330
1A1
100
AcDbEntity
  8
D1
 62
     1
420
 16711680
370
    25
100
AcDbLine
 10
232.442618329428
 20
1377.459815173672
 30
0.0
 11
232.442618329428
 21
1397.459815173672
 31
0.0
  0
LWPOLYLINE
  5
1A9
330
1A1
100
AcDbEntity
  8
D1
100
AcDbPolyline
 90
        4
 70
     1
 43
0.0
 10
231.6926183294282
 20
1363.240826290183
 10
233.1926183294282
 20
1363.240826290183
 10
232.442618329428
 20
1367.740826290183
 10
232.442618329428
 20
1367.740826290183
  0
HATCH
  5
1AA
330
1A1
100
AcDbEntity
  8
D1
 62
     1
420
 16711680
440
 33554687
100
AcDbHatch
 10
0.0
 20
0.0
 30
0.0
210
0.0
220
0.0
230
1.0
  2
SOLID
 70
     1
 71
     1
 91
        1
 92
        1
 93
        3
 72
     1
 10
231.6926183294282
 20
1363.240826290183
 11
233.1926183294282
 21
1363.240826290183
 72
     1
 10
233.1926183294282
 20
1363.240826290183
 11
232.442618329428
 21
1367.740826290183
 72
     1
 10
232.442618329428
 20
1367.740826290183
 11
231.6926183294282
 21
1363.240826290183
 97
        1
330
1A9
 75
     2
 76
     1
 98
        1
 10
0.0
 20
0.0
450
        0
451
        0
460
0.0
461
0.0
452
        0
462
0.0
453
        0
470

  0
LWPOLYLINE
  5
1AB
330
1A1
100
AcDbEntity
  8
D1
100
AcDbPolyline
 90
        4
 70
     1
 43
0.0
 10
231.6926183294282
 20
1377.459815173672
 10
233.1926183294282
 20
1377.459815173672
 10
232.442618329428
 20
1372.959815173672
 10
232.442618329428
 20
1372.959815173672
  0
HATCH
  5
1AC
330
1A1
100
AcDbEntity
  8
D1
 62
     1
420
 16711680
440
 33554687
100
AcDbHatch
 10
0.0
 20
0.0
 30
0.0
210
0.0
220
0.0
230
1.0
  2
SOLID
 70
     1
 71
     1
 91
        1
 92
        1
 93
        3
 72
     1
 10
231.6926183294282
 20
1377.459815173672
 11
233.1926183294282
 21
1377.459815173672
 72
     1
 10
233.1926183294282
 20
1377.459815173672
 11
232.442618329428
 21
1372.959815173672
 72
     1
 10
232.442618329428
 20
1372.959815173672
 11
231.6926183294282
 21
1377.459815173672
 97
        1
330
1AB
 75
     2
 76
     1
 98
        1
 10
0.0
 20
0.0
450
        0
451
        0
460
0.0
461
0.0
452
        0
462
0.0
453
        0
470

  0
MTEXT
  5
1AD
330
1A1
100
AcDbEntity
  8
D1
100
AcDbMText
 10
230.1925814582939
 20
1383.459740865072
 30
0.0
 40
0.2
 41
0.0
 46
0.0
 71
     7
 72
     1
  1
\C18;\c0;\FMyriad Pro|b0|i0|c1;\H5.250000;\W1.000000;2.6
 11
0.0000000000000001
 21
1.0
 31
0.0
 73
     1
 44
1.0
  0
ENDBLK
  5
1A4
330
1A1
100
AcDbEntity
  8
0
100
AcDbBlockEnd
  0
BLOCK
  5
1B0
330
1AE
100
AcDbEntity
  8
0
100
AcDbBlockBegin
  2
Block_21
 70
     0
 10
0.0
 20
0.0
 30
0.0
  3
Block_21
  1

  0
LINE
  5
1B2
330
1AE
100
AcDbEntity
  8
D1
 62
     1
420
 16711680
370
    25
100
AcDbLine
 10
203.386235350411
 20
1364.740826290183
 30
0.0
 11
203.386235350411
 21
1349.372810392236
 31
0.0
  0
LINE
  5
1B3
330
1AE
100
AcDbEntity
  8
D1
 62
     1
420
 16711680
370
    25
100
AcDbLine
 10
170.5558674443258
 20
1366.300826290183
 30
0.0
 11
170.5558674443258
 21
1349.372810392236
 31
0.0
  0
LINE
  5
1B4
330
1AE
100
AcDbEntity
  8
D1
 62
     1
420
 16711680
370
    25
100
AcDbLine
 10
207.8862353504108
 20
1351.622810392236
 30
0.0
 11
212.3862353504109
 21
1351.622810392236
 31
0.0
  0
LINE
  5
1B5
330
1AE
100
AcDbEntity
  8
D1
 62
     1
420
 16711680
370
    25
100
AcDbLine
 10
166.055867444326
 20
1351.622810392236
 30
0.0
 11
121.555867444326
 21
1351.622810392236
 31
0.0
  0
LWPOLYLINE
  5
1B6
330
1AE
100
AcDbEntity
  8
D1
100
AcDbPolyline
 90
        4
 70
     1
 43
0.0
 10
207.8862353504108
 20
1352.372810392236
 10
207.8862353504108
 20
1350.872810392236
 10
203.386235350411
 20
1351.622810392236
 10
203.386235350411
 20
1351.622810392236
  0
HATCH
  5
1B7
330
1AE
100
AcDbEntity
  8
D1
 62
     1
420
 16711680
440
 33554687
100
AcDbHatch
 10
0.0
 20
0.0
 30
0.0
210
0.0
220
0.0
230
1.0
  2
SOLID
 70
     1
 71
     1
 91
        1
 92
        1
 93
        3
 72
     1
 10
207.8862353504108
 20
1352.372810392236
 11
207.8862353504108
 21
1350.872810392236
 72
     1
 10
207.8862353504108
 20
1350.872810392236
 11
203.386235350411
 21
1351.622810392236
 72
     1
 10
203.386235350411
 20
1351.622810392236
 11
207.8862353504108
 21
1352.372810392236
 97
        1
330
1B6
 75
     2
 76
     1
 98
        1
 10
0.0
 20
0.0
450
        0
451
        0
460
0.0
461
0.0
452
        0
462
0.0
453
        0
470

  0
LWPOLYLINE
  5
1B8
330
1AE
100
AcDbEntity
  8
D1
100
AcDbPolyline
 90
        4
 70
     1
 43
0.0
 10
166.055867444326
 20
1352.372810392236
 10
166.055867444326
 20
1350.872810392236
 10
170.5558674443258
 20
1351.622810392236
 10
170.5558674443258
 20
1351.622810392236
  0
HATCH
  5
1B9
330
1AE
100
AcDbEntity
  8
D1
 62
     1
420
 16711680
440
 33554687
100
AcDbHatch
 10
0.0
 20
0.0
 30
0.0
210
0.0
220
0.0
230
1.0
  2
SOLID
 70
     1
 71
     1
 91
        1
 92
        1
 93
        3
 72
     1
 10
166.055867444326
 20
1352.372810392236
 11
166.055867444326
 21
1350.872810392236
 72
     1
 10
166.055867444326
 20
1350.872810392236
 11
170.5558674443258
 21
1351.622810392236
 72
     1
 10
170.5558674443258
 20
1351.622810392236
 11
166.055867444326
 21
1352.372810392236
 97
        1
330
1B8
 75
     2
 76
     1
 98
        1
 10
0.0
 20
0.0
450
        0
451
        0
460
0.0
461
0.0
452
        0
462
0.0
453
        0
470

  0
MTEXT
  5
1BA
330
1AE
100
AcDbEntity
  8
D1
100
AcDbMText
 10
122.305863582976
 20
1353.872830200811
 30
0.0
 40
0.2
 41
0.0
 46
0.0
 71
     7
 72
     1
  1
\C18;\c0;\FMyriad Pro|b0|i0|c1;\H5.250000;\W1.000000;16.4 REF
 73
     1
 44
1.0
  0
ENDBLK
  5
1B1
330
1AE
100
AcDbEntity
  8
0
100
AcDbBlockEnd
  0
BLOCK
  5
1BD
330
1BB
100
AcDbEntity
  8
0
100
AcDbBlockBegin
  2
Block_22
 70
     0
 10
0.0
 20
0.0
 30
0.0
  3
Block_22
  1

  0
LINE
  5
1BF
330
1BB
100
AcDbEntity
  8
D1
 62
     1
420
 16711680
370
    25
100
AcDbLine
 10
167.208367347446
 20
1370.688789834057
 30
0.0
 11
130.8030561712457
 21
1380.985120698745
 31
0.0
  0
LWPOLYLINE
  5
1C0
330
1BB
100
AcDbEntity
  8
D1
100
AcDbPolyline
 90
        4
 70
     1
 43
0.0
 10
167.4124796333098
 20
1371.410481024774
 10
167.0042550615823
 20
1369.967098643339
 10
171.5385144917517
 20
1369.464116118873
 10
171.5385144917517
 20
1369.464116118873
  0
HATCH
  5
1C1
330
1BB
100
AcDbEntity
  8
D1
 62
     1
420
 16711680
440
 33554687
100
AcDbHatch
 10
0.0
 20
0.0
 30
0.0
210
0.0
220
0.0
230
1.0
  2
SOLID
 70
     1
 71
     1
 91
        1
 92
        1
 93
        3
 72
     1
 10
167.4124796333098
 20
1371.410481024774
 11
167.0042550615823
 21
1369.967098643339
 72
     1
 10
167.0042550615823
 20
1369.967098643339
 11
171.5385144917517
 21
1369.464116118873
 72
     1
 10
171.5385144917517
 20
1369.464116118873
 11
167.4124796333098
 21
1371.410481024774
 97
        1
330
1C0
 75
     2
 76
     1
 98
        1
 10
0.0
 20
0.0
450
        0
451
        0
460
0.0
461
0.0
452
        0
462
0.0
453
        0
470

  0
MTEXT
  5
1C2
330
1BB
100
AcDbEntity
  8
D1
100
AcDbMText
 10
132.6182700964731
 20
1382.809870019311
 30
0.0
 40
0.2
 41
0.0
 46
0.0
 71
     7
 72
     1
  1
\C18;\c0;\FMyriad Pro|b0|i0|c1;\H5.250000;\W1.000000;R0.3
 11
0.9622549231664635
 21
-0.272149706672455
 31
0.0
 73
     1
 44
1.0
  0
ENDBLK
  5
1BE
330
1BB
100
AcDbEntity
  8
0
100
AcDbBlockEnd
  0
ENDSEC
  0
SECTION
  2
ENTITIES
  0
LINE
  5
78
330
70
100
AcDbEntity
  8
0
 62
     4
420
    65535
370
    25
100
AcDbLine
 10
355.0369341705586
 20
858.8323728036208
 30
0.0
 11
588.7111109948705
 21
858.8323728036208
 31
0.0
  0
LINE
  5
79
330
70
100
AcDbEntity
  8
0
 62
    18
420
        0
370
    25
100
AcDbLine
 10
355.0369341705586
 20
830.9409883219572
 30
0.0
 11
588.7111109948705
 21
830.9409883219572
 31
0.0
  0
LINE
  5
7A
330
70
100
AcDbEntity
  8
0
 62
     4
420
    65535
370
    25
100
AcDbLine
 10
355.0369341705586
 20
844.7272889698712
 30
0.0
 11
588.7111109948705
 21
844.7272889698712
 31
0.0
  0
LINE
  5
7B
330
70
100
AcDbEntity
  8
0
 62
    18
420
        0
370
    25
100
AcDbLine
 10
398.2059929015949
 20
805.1472219365603
 30
0.0
 11
398.2059929015949
 21
844.7272889698712
 31
0.0
  0
LINE
  5
7C
330
70
100
AcDbEntity
  8
0
 62
    18
420
        0
370
    25
100
AcDbLine
 10
397.1984869134701
 20
805.1472219365603
 30
0.0
 11
397.1984869134701
 21
844.7272889698712
 31
0.0
  0
LINE
  5
7D
330
70
100
AcDbEntity
  8
0
 62
     4
420
    65535
370
    25
100
AcDbLine
 10
355.0369341705586
 20
805.1472219365603
 30
0.0
 11
355.0369341705586
 21
858.8323728036208
 31
0.0
  0
LINE
  5
7E
330
70
100
AcDbEntity
  8
0
 62
    18
420
        0
370
    25
100
AcDbLine
 10
508.6484030557234
 20
805.1472219365603
 30
0.0
 11
508.6484030557234
 21
844.7272889698712
 31
0.0
  0
LINE
  5
7F
330
70
100
AcDbEntity
  8
0
 62
    18
420
        0
370
    25
100
AcDbLine
 10
454.7405100311324
 20
805.1472219365603
 30
0.0
 11
454.7405100311324
 21
844.7272889698712
 31
0.0
  0
LINE
  5
80
330
70
100
AcDbEntity
  8
0
 62
     4
420
    65535
370
    25
100
AcDbLine
 10
588.7111109948705
 20
805.1472219365603
 30
0.0
 11
588.7111109948705
 21
858.8323728036208
 31
0.0
  0
MTEXT
  5
81
330
70
100
AcDbEntity
  8
0
100
AcDbMText
 10
774.1384492422293
 20
877.838837806799
 30
0.0
 40
0.2
 41
0.0
 46
0.0
 71
     7
 72
     1
  1
\C18;\c0;\FMyriad Pro|b0|i0|c1;\H3.281250;\W1.000000;11/21/2024 9:14
 73
     1
 44
1.0
  0
LINE
  5
82
330
70
100
AcDbEntity
  8
0
 62
    18
420
        0
370
    25
100
AcDbLine
 10
772.4611109948698
 20
889.5222219365606
 30
0.0
 11
772.4611109948698
 21
875.4597219365605
 31
0.0
  0
LINE
  5
83
330
70
100
AcDbEntity
  8
0
 62
    18
420
        0
370
    25
100
AcDbLine
 10
822.1486109948703
 20
883.8972219365604
 30
0.0
 11
772.4611109948698
 21
883.8972219365604
 31
0.0
  0
MTEXT
  5
84
330
70
100
AcDbEntity
  8
0
100
AcDbMText
 10
784.1563562764002
 20
885.4102964095067
 30
0.0
 40
0.2
 41
0.0
 46
0.0
 71
     7
 72
     1
  1
\C18;\c0;\FMyriad Pro|b0|i0|c1;\H2.812500;\W1.000000;TIME STAMP
 73
     1
 44
1.0
  0
LINE
  5
85
330
70
100
AcDbEntity
  8
0
 62
    18
420
        0
370
    25
100
AcDbLine
 10
1096.007126574575
 20
-875.5750338371003
 30
0.0
 11
1096.007126574575
 21
-875.5750338371003
 31
0.0
  0
MTEXT
  5
86
330
70
100
AcDbEntity
  8
0
100
AcDbMText
 10
433.6853714600465
 20
1334.398222187017
 30
0.0
 40
0.2
 41
0.0
 46
0.0
 71
     7
 72
     1
  1
\C18;\c0;\FArial|b0|i0|c1;\H8.000000;\W1.000000;LAP DETAIL
 73
     1
 44
1.0
  0
INSERT
  5
88
330
70
100
AcDbEntity
  8
0
100
AcDbBlockReference
  2
Block_0
 10
0.0
 20
0.0
 30
0.0
  0
INSERT
  5
8E
330
70
100
AcDbEntity
  8
0
100
AcDbBlockReference
  2
Block_1
 10
0.0
 20
0.0
 30
0.0
  0
MTEXT
  5
93
330
70
100
AcDbEntity
  8
0
100
AcDbMText
 10
410.3675010502944
 20
1185.616089248952
 30
0.0
 40
0.2
 41
0.0
 46
0.0
 71
     7
 72
     1
  1
\C18;\c0;\FArial|b0|i0|c1;\H8.000000;\W1.000000;TYPICAL RIB DETAIL
 73
     1
 44
1.0
  0
MTEXT
  5
94
330
70
100
AcDbEntity
  8
0
100
AcDbMText
 10
90.64455326781196
 20
1384.070728549382
 30
0.0
 40
0.2
 41
0.0
 46
0.0
 71
     7
 72
     1
  1
\C18;\c0;\FArial|b0|i0|c1;\H4.500000;\W1.000000;SEE NOTE 5
 73
     1
 44
1.0
  0
MTEXT
  5
96
330
70
100
AcDbEntity
  8
O
100
AcDbMText
 10
402.392707893651
 20
820.6883210567637
 30
0.0
 40
0.2
 41
0.0
 46
0.0
 71
     7
 72
     1
  1
\C18;\c0;\FMyriad Pro|b0|i0|c1;\H4.500000;\W1.000000;0.35-0.48mm 
 73
     1
 44
1.0
  0
MTEXT
  5
97
330
70
100
AcDbEntity
  8
O
100
AcDbMText
 10
403.9891220778221
 20
834.9983003012331
 30
0.0
 40
0.2
 41
0.0
 46
0.0
 71
     7
 72
     1
  1
\C18;\c0;\FMyriad Pro|b0|i0|c1;\H4.500000;\W1.000000;THICKNESS
 73
     1
 44
1.0
  0
MTEXT
  5
98
330
70
100
AcDbEntity
  8
O
100
AcDbMText
 10
409.2102073494118
 20
848.9272519850338
 30
0.0
 40
0.2
 41
0.0
 46
0.0
 71
     7
 72
     1
  1
\C18;\c0;\FMyriad Pro|b0|i0|c1;\H6.000000;\W1.000000;MATERIAL SPECIFICATION
 73
     1
 44
1.0
  0
MTEXT
  5
99
330
70
100
AcDbEntity
  8
O
100
AcDbMText
 10
361.4224696633336
 20
835.6799124429898
 30
0.0
 40
0.2
 41
0.0
 46
0.0
 71
     7
 72
     1
  1
\C18;\c0;\FMyriad Pro|b0|i0|c1;\H4.500000;\W1.000000;MATERIAL
 73
     1
 44
1.0
  0
MTEXT
  5
9A
330
70
100
AcDbEntity
  8
O
100
AcDbMText
 10
367.1976554800322
 20
820.7574813486301
 30
0.0
 40
0.2
 41
0.0
 46
0.0
 71
     7
 72
     1
  1
\C18;\c0;\FMyriad Pro|b0|i0|c1;\H4.500000;\W1.000000;STEEL
 73
     1
 44
1.0
  0
MTEXT
  5
9B
330
70
100
AcDbEntity
  8
O
100
AcDbMText
 10
513.1012819490901
 20
821.4751808655947
 30
0.0
 40
0.2
 41
0.0
 46
0.0
 71
     7
 72
     1
  1
\C18;\c0;\FMyriad Pro|b0|i0|c1;\H4.500000;\W1.000000;PREPAINTED COLOUR 
 73
     1
 44
1.0
  0
MTEXT
  5
9C
330
70
100
AcDbEntity
  8
O
100
AcDbMText
 10
515.8713971013924
 20
835.6799124429898
 30
0.0
 40
0.2
 41
0.0
 46
0.0
 71
     7
 72
     1
  1
\C18;\c0;\FMyriad Pro|b0|i0|c1;\H4.500000;\W1.000000;FINISH
 73
     1
 44
1.0
  0
MTEXT
  5
9D
330
70
100
AcDbEntity
  8
O
100
AcDbMText
 10
469.4275481004165
 20
835.3391063721115
 30
0.0
 40
0.2
 41
0.0
 46
0.0
 71
     7
 72
     1
  1
\C18;\c0;\FMyriad Pro|b0|i0|c1;\H4.500000;\W1.000000;TEMPER
 73
     1
 44
1.0
  0
MTEXT
  5
9E
330
70
100
AcDbEntity
  8
O
100
AcDbMText
 10
456.8872713430264
 20
821.0982874195083
 30
0.0
 40
0.2
 41
0.0
 46
0.0
 71
     7
 72
     1
  1
\C18;\c0;\FMyriad Pro|b0|i0|c1;\H4.500000;\W1.000000; G550 MPa
 73
     1
 44
1.0
  0
MTEXT
  5
9F
330
70
100
AcDbEntity
  8
O
100
AcDbMText
 10
513.4422172110491
 20
811.3552128776733
 30
0.0
 40
0.2
 41
0.0
 46
0.0
 71
     7
 72
     1
  1
\C18;\c0;\FMyriad Pro|b0|i0|c1;\H4.500000;\W1.000000;AZ150 ZINCALUME
 73
     1
 44
1.0
  0
INSERT
  5
A1
330
70
100
AcDbEntity
  8
O
100
AcDbBlockReference
  2
Block_2
 10
0.0
 20
0.0
 30
0.0
  0
MTEXT
  5
B3
330
70
100
AcDbEntity
  8
O1
100
AcDbMText
 10
928.0860722234907
 20
851.5534482734398
 30
0.0
 40
0.2
 41
0.0
 46
0.0
 71
     7
 72
     1
  1
\C18;\c0;\FMyriad Pro|b0|i0|c1;\H5.625000;\W1.000000;TH
 73
     1
 44
1.0
  0
MTEXT
  5
B4
330
70
100
AcDbEntity
  8
O1
100
AcDbMText
 10
911.5822561740142
 20
837.4909991395856
 30
0.0
 40
0.2
 41
0.0
 46
0.0
 71
     7
 72
     1
  1
\C18;\c0;\FMyriad Pro|b0|i0|c1;\H5.625000;\W0.760714;19/04/2024
 73
     1
 44
1.0
  0
MTEXT
  5
B5
330
70
100
AcDbEntity
  8
O1
100
AcDbMText
 10
924.8717981357525
 20
865.615983534681
 30
0.0
 40
0.2
 41
0.0
 46
0.0
 71
     7
 72
     1
  1
\C18;\c0;\FMyriad Pro|b0|i0|c1;\H5.625000;\W1.000000;NTS
 73
     1
 44
1.0
  0
MTEXT
  5
B6
330
70
100
AcDbEntity
  8
O1
100
AcDbMText
 10
887.9744809791784
 20
811.2115523959385
 30
0.0
 40
0.2
 41
0.0
 46
0.0
 71
     7
 72
     1
  1
\C18;\c0;\FMyriad Pro|b0|i0|c1;\H9.375000;\W1.000000;QC1516
 73
     1
 44
1.0
  0
MTEXT
  5
B7
330
70
100
AcDbEntity
  8
O1
100
AcDbMText
 10
710.2220233413247
 20
829.8252310479691
 30
0.0
 40
0.2
 41
0.0
 46
0.0
 71
     7
 72
     1
  1
\C18;\c0;\FMyriad Pro|b0|i0|c1;\H5.625000;\W1.000000;METRIB - RETURN LAP
 73
     1
 44
1.0
  0
MTEXT
  5
B8
330
70
100
AcDbEntity
  8
O1
100
AcDbMText
 10
710.2220233413247
 20
819.1758380113519
 30
0.0
 40
0.2
 41
0.0
 46
0.0
 71
     7
 72
     1
  1
\C18;\c0;\FMyriad Pro|b0|i0|c1;\H5.625000;\W1.000000;----
 73
     1
 44
1.0
  0
MTEXT
  5
B9
330
70
100
AcDbEntity
  8
O1
100
AcDbMText
 10
710.2220233413247
 20
807.7072012683423
 30
0.0
 40
0.2
 41
0.0
 46
0.0
 71
     7
 72
     1
  1
\C18;\c0;\FMyriad Pro|b0|i0|c1;\H5.625000;\W1.000000;----
 73
     1
 44
1.0
  0
SPLINE
  5
BA
330
70
100
AcDbEntity
  8
O1
 62
    18
420
        0
370
    25
100
AcDbSpline
210
0.0
220
0.0
230
1.0
 70
     8
 71
     3
 72
    89
 73
    85
 74
     0
 42
0.0000000001
 43
0.0000000001
 40
0.0
 40
0.0
 40
0.0
 40
0.0
 40
1.0
 40
1.0
 40
1.0
 40
2.0
 40
2.0
 40
2.0
 40
3.0
 40
3.0
 40
3.0
 40
4.0
 40
4.0
 40
4.0
 40
5.0
 40
5.0
 40
5.0
 40
6.0
 40
6.0
 40
6.0
 40
7.0
 40
7.0
 40
7.0
 40
8.0
 40
8.0
 40
8.0
 40
9.0
 40
9.0
 40
9.0
 40
10.0
 40
10.0
 40
10.0
 40
11.0
 40
11.0
 40
11.0
 40
12.0
 40
12.0
 40
12.0
 40
13.0
 40
13.0
 40
13.0
 40
14.0
 40
14.0
 40
14.0
 40
15.0
 40
15.0
 40
15.0
 40
16.0
 40
16.0
 40
16.0
 40
17.0
 40
17.0
 40
17.0
 40
18.0
 40
18.0
 40
18.0
 40
19.0
 40
19.0
 40
19.0
 40
20.0
 40
20.0
 40
20.0
 40
21.0
 40
21.0
 40
21.0
 40
22.0
 40
22.0
 40
22.0
 40
23.0
 40
23.0
 40
23.0
 40
24.0
 40
24.0
 40
24.0
 40
25.0
 40
25.0
 40
25.0
 40
26.0
 40
26.0
 40
26.0
 40
27.0
 40
27.0
 40
27.0
 40
28.0
 40
28.0
 40
28.0
 40
28.0
 10
315.5735211530052
 20
1215.980826290186
 30
0.0
 10
315.5735211530052
 20
1215.980826290186
 30
0.0
 10
334.0311748616834
 20
1215.980826290185
 30
0.0
 10
334.0311748616834
 20
1215.980826290185
 30
0.0
 10
335.4465579162122
 20
1215.980826290185
 30
0.0
 10
336.8163739973434
 20
1216.481192214561
 30
0.0
 10
337.8985144505969
 20
1217.393486701271
 30
0.0
 10
337.8985144505969
 20
1217.393486701271
 30
0.0
 10
342.629753521187
 20
1221.382140213326
 30
0.0
 10
342.629753521187
 20
1221.382140213326
 30
0.0
 10
343.8850364469608
 20
1222.440401817909
 30
0.0
 10
345.4740231010732
 20
1223.020826290186
 30
0.0
 10
347.1158674443271
 20
1223.020826290186
 30
0.0
 10
347.1158674443271
 20
1223.020826290186
 30
0.0
 10
365.5735211530051
 20
1223.020826290185
 30
0.0
 10
365.5735211530051
 20
1223.020826290185
 30
0.0
 10
365.5735211530051
 20
1223.020826290185
 30
0.0
 10
384.0311748616829
 20
1223.020826290185
 30
0.0
 10
384.0311748616829
 20
1223.020826290185
 30
0.0
 10
385.6730192049369
 20
1223.020826290185
 30
0.0
 10
387.2620058590496
 20
1222.440401817909
 30
0.0
 10
388.5172887848234
 20
1221.382140213326
 30
0.0
 10
388.5172887848234
 20
1221.382140213326
 30
0.0
 10
393.2485278554128
 20
1217.393486701272
 30
0.0
 10
393.2485278554128
 20
1217.393486701272
 30
0.0
 10
394.3306683086663
 20
1216.481192214561
 30
0.0
 10
395.7004843897976
 20
1215.980826290185
 30
0.0
 10
397.115867444327
 20
1215.980826290185
 30
0.0
 10
397.115867444327
 20
1215.980826290185
 30
0.0
 10
434.0311748616831
 20
1215.980826290185
 30
0.0
 10
434.0311748616831
 20
1215.980826290185
 30
0.0
 10
435.4465579162122
 20
1215.980826290185
 30
0.0
 10
436.8163739973438
 20
1216.481192214561
 30
0.0
 10
437.8985144505969
 20
1217.393486701271
 30
0.0
 10
437.8985144505969
 20
1217.393486701271
 30
0.0
 10
442.6297535211864
 20
1221.382140213326
 30
0.0
 10
442.6297535211864
 20
1221.382140213326
 30
0.0
 10
443.88503644696
 20
1222.440401817909
 30
0.0
 10
445.4740231010728
 20
1223.020826290185
 30
0.0
 10
447.1158674443268
 20
1223.020826290185
 30
0.0
 10
447.1158674443268
 20
1223.020826290185
 30
0.0
 10
465.5735211530047
 20
1223.020826290185
 30
0.0
 10
465.5735211530047
 20
1223.020826290185
 30
0.0
 10
465.5735211530047
 20
1223.020826290185
 30
0.0
 10
484.0311748616826
 20
1223.020826290185
 30
0.0
 10
484.0311748616826
 20
1223.020826290185
 30
0.0
 10
485.6730192049369
 20
1223.020826290185
 30
0.0
 10
487.2620058590493
 20
1222.440401817909
 30
0.0
 10
488.5172887848233
 20
1221.382140213326
 30
0.0
 10
488.5172887848233
 20
1221.382140213326
 30
0.0
 10
493.2485278554131
 20
1217.393486701271
 30
0.0
 10
493.2485278554131
 20
1217.393486701271
 30
0.0
 10
494.3306683086659
 20
1216.481192214561
 30
0.0
 10
495.7004843897975
 20
1215.980826290185
 30
0.0
 10
497.1158674443266
 20
1215.980826290185
 30
0.0
 10
497.1158674443266
 20
1215.980826290185
 30
0.0
 10
534.0311748616824
 20
1215.980826290185
 30
0.0
 10
534.0311748616824
 20
1215.980826290185
 30
0.0
 10
535.4465579162115
 20
1215.980826290184
 30
0.0
 10
536.8163739973431
 20
1216.48119221456
 30
0.0
 10
537.8985144505966
 20
1217.39348670127
 30
0.0
 10
537.8985144505966
 20
1217.39348670127
 30
0.0
 10
542.6297535211863
 20
1221.382140213325
 30
0.0
 10
542.6297535211863
 20
1221.382140213325
 30
0.0
 10
543.8850364469598
 20
1222.440401817908
 30
0.0
 10
545.4740231010728
 20
1223.020826290184
 30
0.0
 10
547.1158674443264
 20
1223.020826290184
 30
0.0
 10
547.1158674443264
 20
1223.020826290184
 30
0.0
 10
565.573521153005
 20
1223.020826290184
 30
0.0
 10
565.573521153005
 20
1223.020826290184
 30
0.0
 10
565.573521153005
 20
1223.020826290184
 30
0.0
 10
584.0311748616823
 20
1223.020826290184
 30
0.0
 10
584.0311748616823
 20
1223.020826290184
 30
0.0
 10
585.6730192049366
 20
1223.020826290185
 30
0.0
 10
587.2620058590491
 20
1222.440401817908
 30
0.0
 10
588.5172887848231
 20
1221.382140213325
 30
0.0
 10
588.5172887848231
 20
1221.382140213325
 30
0.0
 10
593.2485278554127
 20
1217.393486701271
 30
0.0
 10
593.2485278554127
 20
1217.393486701271
 30
0.0
 10
594.3306683086657
 20
1216.481192214561
 30
0.0
 10
595.7004843897972
 20
1215.980826290185
 30
0.0
 10
597.1158674443263
 20
1215.980826290185
 30
0.0
 10
597.1158674443263
 20
1215.980826290185
 30
0.0
 10
615.5735211530049
 20
1215.980826290184
 30
0.0
 10
615.5735211530049
 20
1215.980826290184
 30
0.0
  0
SPLINE
  5
BB
330
70
100
AcDbEntity
  8
O1
 62
    18
420
        0
370
    25
100
AcDbSpline
210
0.0
220
0.0
230
1.0
 70
     8
 71
     3
 72
    89
 73
    85
 74
     0
 42
0.0000000001
 43
0.0000000001
 40
0.0
 40
0.0
 40
0.0
 40
0.0
 40
1.0
 40
1.0
 40
1.0
 40
2.0
 40
2.0
 40
2.0
 40
3.0
 40
3.0
 40
3.0
 40
4.0
 40
4.0
 40
4.0
 40
5.0
 40
5.0
 40
5.0
 40
6.0
 40
6.0
 40
6.0
 40
7.0
 40
7.0
 40
7.0
 40
8.0
 40
8.0
 40
8.0
 40
9.0
 40
9.0
 40
9.0
 40
10.0
 40
10.0
 40
10.0
 40
11.0
 40
11.0
 40
11.0
 40
12.0
 40
12.0
 40
12.0
 40
13.0
 40
13.0
 40
13.0
 40
14.0
 40
14.0
 40
14.0
 40
15.0
 40
15.0
 40
15.0
 40
16.0
 40
16.0
 40
16.0
 40
17.0
 40
17.0
 40
17.0
 40
18.0
 40
18.0
 40
18.0
 40
19.0
 40
19.0
 40
19.0
 40
20.0
 40
20.0
 40
20.0
 40
21.0
 40
21.0
 40
21.0
 40
22.0
 40
22.0
 40
22.0
 40
23.0
 40
23.0
 40
23.0
 40
24.0
 40
24.0
 40
24.0
 40
25.0
 40
25.0
 40
25.0
 40
26.0
 40
26.0
 40
26.0
 40
27.0
 40
27.0
 40
27.0
 40
28.0
 40
28.0
 40
28.0
 40
28.0
 10
315.5735211530052
 20
1215.020826290185
 30
0.0
 10
315.5735211530052
 20
1215.020826290185
 30
0.0
 10
334.0311748616834
 20
1215.020826290185
 30
0.0
 10
334.0311748616834
 20
1215.020826290185
 30
0.0
 10
335.6730192049367
 20
1215.020826290185
 30
0.0
 10
337.2620058590492
 20
1215.601250762462
 30
0.0
 10
338.5172887848229
 20
1216.659512367045
 30
0.0
 10
338.5172887848229
 20
1216.659512367045
 30
0.0
 10
343.248527855413
 20
1220.648165879099
 30
0.0
 10
343.248527855413
 20
1220.648165879099
 30
0.0
 10
344.3306683086662
 20
1221.560460365809
 30
0.0
 10
345.7004843897977
 20
1222.060826290185
 30
0.0
 10
347.1158674443271
 20
1222.060826290185
 30
0.0
 10
347.1158674443271
 20
1222.060826290185
 30
0.0
 10
365.5735211530051
 20
1222.060826290186
 30
0.0
 10
365.5735211530051
 20
1222.060826290186
 30
0.0
 10
365.5735211530051
 20
1222.060826290186
 30
0.0
 10
384.0311748616829
 20
1222.060826290186
 30
0.0
 10
384.0311748616829
 20
1222.060826290186
 30
0.0
 10
385.4465579162124
 20
1222.060826290186
 30
0.0
 10
386.8163739973439
 20
1221.560460365809
 30
0.0
 10
387.8985144505971
 20
1220.648165879099
 30
0.0
 10
387.8985144505971
 20
1220.648165879099
 30
0.0
 10
392.6297535211869
 20
1216.659512367045
 30
0.0
 10
392.6297535211869
 20
1216.659512367045
 30
0.0
 10
393.8850364469606
 20
1215.601250762462
 30
0.0
 10
395.4740231010731
 20
1215.020826290185
 30
0.0
 10
397.115867444327
 20
1215.020826290185
 30
0.0
 10
397.115867444327
 20
1215.020826290185
 30
0.0
 10
434.0311748616831
 20
1215.020826290185
 30
0.0
 10
434.0311748616831
 20
1215.020826290185
 30
0.0
 10
435.6730192049363
 20
1215.020826290185
 30
0.0
 10
437.2620058590488
 20
1215.601250762461
 30
0.0
 10
438.5172887848229
 20
1216.659512367044
 30
0.0
 10
438.5172887848229
 20
1216.659512367044
 30
0.0
 10
443.2485278554127
 20
1220.648165879099
 30
0.0
 10
443.2485278554127
 20
1220.648165879099
 30
0.0
 10
444.3306683086658
 20
1221.560460365809
 30
0.0
 10
445.7004843897977
 20
1222.060826290185
 30
0.0
 10
447.1158674443268
 20
1222.060826290185
 30
0.0
 10
447.1158674443268
 20
1222.060826290185
 30
0.0
 10
465.5735211530047
 20
1222.060826290185
 30
0.0
 10
465.5735211530047
 20
1222.060826290185
 30
0.0
 10
465.5735211530047
 20
1222.060826290185
 30
0.0
 10
484.0311748616826
 20
1222.060826290185
 30
0.0
 10
484.0311748616826
 20
1222.060826290185
 30
0.0
 10
485.4465579162116
 20
1222.060826290185
 30
0.0
 10
486.8163739973438
 20
1221.560460365809
 30
0.0
 10
487.8985144505974
 20
1220.648165879099
 30
0.0
 10
487.8985144505974
 20
1220.648165879099
 30
0.0
 10
492.6297535211865
 20
1216.659512367045
 30
0.0
 10
492.6297535211865
 20
1216.659512367045
 30
0.0
 10
493.8850364469599
 20
1215.601250762462
 30
0.0
 10
495.474023101073
 20
1215.020826290185
 30
0.0
 10
497.1158674443266
 20
1215.020826290185
 30
0.0
 10
497.1158674443266
 20
1215.020826290185
 30
0.0
 10
534.0311748616824
 20
1215.020826290184
 30
0.0
 10
534.0311748616824
 20
1215.020826290184
 30
0.0
 10
535.6730192049367
 20
1215.020826290184
 30
0.0
 10
537.2620058590491
 20
1215.601250762461
 30
0.0
 10
538.5172887848232
 20
1216.659512367044
 30
0.0
 10
538.5172887848232
 20
1216.659512367044
 30
0.0
 10
543.2485278554123
 20
1220.648165879099
 30
0.0
 10
543.2485278554123
 20
1220.648165879099
 30
0.0
 10
544.3306683086658
 20
1221.560460365809
 30
0.0
 10
545.7004843897967
 20
1222.060826290185
 30
0.0
 10
547.1158674443264
 20
1222.060826290185
 30
0.0
 10
547.1158674443264
 20
1222.060826290185
 30
0.0
 10
565.573521153005
 20
1222.060826290185
 30
0.0
 10
565.573521153005
 20
1222.060826290185
 30
0.0
 10
565.573521153005
 20
1222.060826290185
 30
0.0
 10
584.0311748616823
 20
1222.060826290185
 30
0.0
 10
584.0311748616823
 20
1222.060826290185
 30
0.0
 10
585.4465579162121
 20
1222.060826290185
 30
0.0
 10
586.8163739973436
 20
1221.560460365809
 30
0.0
 10
587.8985144505963
 20
1220.648165879099
 30
0.0
 10
587.8985144505963
 20
1220.648165879099
 30
0.0
 10
592.6297535211862
 20
1216.659512367044
 30
0.0
 10
592.6297535211862
 20
1216.659512367044
 30
0.0
 10
593.8850364469602
 20
1215.601250762461
 30
0.0
 10
595.4740231010727
 20
1215.020826290184
 30
0.0
 10
597.115867444327
 20
1215.020826290184
 30
0.0
 10
597.115867444327
 20
1215.020826290184
 30
0.0
 10
615.5735211530049
 20
1215.020826290184
 30
0.0
 10
615.5735211530049
 20
1215.020826290184
 30
0.0
  0
SPLINE
  5
BC
330
70
100
AcDbEntity
  8
O1
 62
    18
420
        0
370
    25
100
AcDbSpline
210
0.0
220
0.0
230
1.0
 70
     8
 71
     3
 72
   485
 73
   481
 74
     0
 42
0.0000000001
 43
0.0000000001
 40
0.0
 40
0.0
 40
0.0
 40
0.0
 40
1.0
 40
1.0
 40
1.0
 40
2.0
 40
2.0
 40
2.0
 40
3.0
 40
3.0
 40
3.0
 40
4.0
 40
4.0
 40
4.0
 40
5.0
 40
5.0
 40
5.0
 40
6.0
 40
6.0
 40
6.0
 40
7.0
 40
7.0
 40
7.0
 40
8.0
 40
8.0
 40
8.0
 40
9.0
 40
9.0
 40
9.0
 40
10.0
 40
10.0
 40
10.0
 40
11.0
 40
11.0
 40
11.0
 40
12.0
 40
12.0
 40
12.0
 40
13.0
 40
13.0
 40
13.0
 40
14.0
 40
14.0
 40
14.0
 40
15.0
 40
15.0
 40
15.0
 40
16.0
 40
16.0
 40
16.0
 40
17.0
 40
17.0
 40
17.0
 40
18.0
 40
18.0
 40
18.0
 40
19.0
 40
19.0
 40
19.0
 40
20.0
 40
20.0
 40
20.0
 40
21.0
 40
21.0
 40
21.0
 40
22.0
 40
22.0
 40
22.0
 40
23.0
 40
23.0
 40
23.0
 40
24.0
 40
24.0
 40
24.0
 40
25.0
 40
25.0
 40
25.0
 40
26.0
 40
26.0
 40
26.0
 40
27.0
 40
27.0
 40
27.0
 40
28.0
 40
28.0
 40
28.0
 40
29.0
 40
29.0
 40
29.0
 40
30.0
 40
30.0
 40
30.0
 40
31.0
 40
31.0
 40
31.0
 40
32.0
 40
32.0
 40
32.0
 40
33.0
 40
33.0
 40
33.0
 40
34.0
 40
34.0
 40
34.0
 40
35.0
 40
35.0
 40
35.0
 40
36.0
 40
36.0
 40
36.0
 40
37.0
 40
37.0
 40
37.0
 40
38.0
 40
38.0
 40
38.0
 40
39.0
 40
39.0
 40
39.0
 40
40.0
 40
40.0
 40
40.0
 40
41.0
 40
41.0
 40
41.0
 40
42.0
 40
42.0
 40
42.0
 40
43.0
 40
43.0
 40
43.0
 40
44.0
 40
44.0
 40
44.0
 40
45.0
 40
45.0
 40
45.0
 40
46.0
 40
46.0
 40
46.0
 40
47.0
 40
47.0
 40
47.0
 40
48.0
 40
48.0
 40
48.0
 40
49.0
 40
49.0
 40
49.0
 40
50.0
 40
50.0
 40
50.0
 40
51.0
 40
51.0
 40
51.0
 40
52.0
 40
52.0
 40
52.0
 40
53.0
 40
53.0
 40
53.0
 40
54.0
 40
54.0
 40
54.0
 40
55.0
 40
55.0
 40
55.0
 40
56.0
 40
56.0
 40
56.0
 40
57.0
 40
57.0
 40
57.0
 40
58.0
 40
58.0
 40
58.0
 40
59.0
 40
59.0
 40
59.0
 40
60.0
 40
60.0
 40
60.0
 40
61.0
 40
61.0
 40
61.0
 40
62.0
 40
62.0
 40
62.0
 40
63.0
 40
63.0
 40
63.0
 40
64.0
 40
64.0
 40
64.0
 40
65.0
 40
65.0
 40
65.0
 40
66.0
 40
66.0
 40
66.0
 40
67.0
 40
67.0
 40
67.0
 40
68.0
 40
68.0
 40
68.0
 40
69.0
 40
69.0
 40
69.0
 40
70.0
 40
70.0
 40
70.0
 40
71.0
 40
71.0
 40
71.0
 40
72.0
 40
72.0
 40
72.0
 40
73.0
 40
73.0
 40
73.0
 40
74.0
 40
74.0
 40
74.0
 40
75.0
 40
75.0
 40
75.0
 40
76.0
 40
76.0
 40
76.0
 40
77.0
 40
77.0
 40
77.0
 40
78.0
 40
78.0
 40
78.0
 40
79.0
 40
79.0
 40
79.0
 40
80.0
 40
80.0
 40
80.0
 40
81.0
 40
81.0
 40
81.0
 40
82.0
 40
82.0
 40
82.0
 40
83.0
 40
83.0
 40
83.0
 40
84.0
 40
84.0
 40
84.0
 40
85.0
 40
85.0
 40
85.0
 40
86.0
 40
86.0
 40
86.0
 40
87.0
 40
87.0
 40
87.0
 40
88.0
 40
88.0
 40
88.0
 40
89.0
 40
89.0
 40
89.0
 40
90.0
 40
90.0
 40
90.0
 40
91.0
 40
91.0
 40
91.0
 40
92.0
 40
92.0
 40
92.0
 40
93.0
 40
93.0
 40
93.0
 40
94.0
 40
94.0
 40
94.0
 40
95.0
 40
95.0
 40
95.0
 40
96.0
 40
96.0
 40
96.0
 40
97.0
 40
97.0
 40
97.0
 40
98.0
 40
98.0
 40
98.0
 40
99.0
 40
99.0
 40
99.0
 40
100.0
 40
100.0
 40
100.0
 40
101.0
 40
101.0
 40
101.0
 40
102.0
 40
102.0
 40
102.0
 40
103.0
 40
103.0
 40
103.0
 40
104.0
 40
104.0
 40
104.0
 40
105.0
 40
105.0
 40
105.0
 40
106.0
 40
106.0
 40
106.0
 40
107.0
 40
107.0
 40
107.0
 40
108.0
 40
108.0
 40
108.0
 40
109.0
 40
109.0
 40
109.0
 40
110.0
 40
110.0
 40
110.0
 40
111.0
 40
111.0
 40
111.0
 40
112.0
 40
112.0
 40
112.0
 40
113.0
 40
113.0
 40
113.0
 40
114.0
 40
114.0
 40
114.0
 40
115.0
 40
115.0
 40
115.0
 40
116.0
 40
116.0
 40
116.0
 40
117.0
 40
117.0
 40
117.0
 40
118.0
 40
118.0
 40
118.0
 40
119.0
 40
119.0
 40
119.0
 40
120.0
 40
120.0
 40
120.0
 40
121.0
 40
121.0
 40
121.0
 40
122.0
 40
122.0
 40
122.0
 40
123.0
 40
123.0
 40
123.0
 40
124.0
 40
124.0
 40
124.0
 40
125.0
 40
125.0
 40
125.0
 40
126.0
 40
126.0
 40
126.0
 40
127.0
 40
127.0
 40
127.0
 40
128.0
 40
128.0
 40
128.0
 40
129.0
 40
129.0
 40
129.0
 40
130.0
 40
130.0
 40
130.0
 40
131.0
 40
131.0
 40
131.0
 40
132.0
 40
132.0
 40
132.0
 40
133.0
 40
133.0
 40
133.0
 40
134.0
 40
134.0
 40
134.0
 40
135.0
 40
135.0
 40
135.0
 40
136.0
 40
136.0
 40
136.0
 40
137.0
 40
137.0
 40
137.0
 40
138.0
 40
138.0
 40
138.0
 40
139.0
 40
139.0
 40
139.0
 40
140.0
 40
140.0
 40
140.0
 40
141.0
 40
141.0
 40
141.0
 40
142.0
 40
142.0
 40
142.0
 40
143.0
 40
143.0
 40
143.0
 40
144.0
 40
144.0
 40
144.0
 40
145.0
 40
145.0
 40
145.0
 40
146.0
 40
146.0
 40
146.0
 40
147.0
 40
147.0
 40
147.0
 40
148.0
 40
148.0
 40
148.0
 40
149.0
 40
149.0
 40
149.0
 40
150.0
 40
150.0
 40
150.0
 40
151.0
 40
151.0
 40
151.0
 40
152.0
 40
152.0
 40
152.0
 40
153.0
 40
153.0
 40
153.0
 40
154.0
 40
154.0
 40
154.0
 40
155.0
 40
155.0
 40
155.0
 40
156.0
 40
156.0
 40
156.0
 40
157.0
 40
157.0
 40
157.0
 40
158.0
 40
158.0
 40
158.0
 40
159.0
 40
159.0
 40
159.0
 40
160.0
 40
160.0
 40
160.0
 40
160.0
 10
896.7124169822449
 20
1038.684119259801
 30
0.0
 10
896.7124169822449
 20
1038.684119259801
 30
0.0
 10
881.0772330292023
 20
1038.684119259801
 30
0.0
 10
881.0772330292023
 20
1038.684119259801
 30
0.0
 10
880.9115476042531
 20
1038.684119259801
 30
0.0
 10
880.7772330292024
 20
1038.818433834852
 30
0.0
 10
880.7772330292024
 20
1038.984119259801
 30
0.0
 10
880.7772330292024
 20
1039.14980468475
 30
0.0
 10
880.9115476042531
 20
1039.284119259801
 30
0.0
 10
881.0772330292023
 20
1039.284119259801
 30
0.0
 10
881.0772330292023
 20
1039.284119259801
 30
0.0
 10
901.9124169822452
 20
1039.284119259801
 30
0.0
 10
901.9124169822452
 20
1039.284119259801
 30
0.0
 10
902.3431990871129
 20
1039.284119259801
 30
0.0
 10
902.692416982245
 20
1039.633337154933
 30
0.0
 10
902.692416982245
 20
1040.064119259801
 30
0.0
 10
902.692416982245
 20
1040.494901364669
 30
0.0
 10
902.3431990871129
 20
1040.844119259801
 30
0.0
 10
901.9124169822452
 20
1040.844119259801
 30
0.0
 10
901.9124169822452
 20
1040.844119259801
 30
0.0
 10
881.0772330292023
 20
1040.844119259801
 30
0.0
 10
881.0772330292023
 20
1040.844119259801
 30
0.0
 10
880.256310857576
 20
1040.844119259801
 30
0.0
 10
879.4618175305199
 20
1040.553907023663
 30
0.0
 10
878.8341760676324
 20
1040.024776221371
 30
0.0
 10
878.8341760676324
 20
1040.024776221371
 30
0.0
 10
876.4685565323375
 20
1038.030449465344
 30
0.0
 10
876.4685565323375
 20
1038.030449465344
 30
0.0
 10
875.9274863057109
 20
1037.574302221989
 30
0.0
 10
875.2425782651455
 20
1037.324119259801
 30
0.0
 10
874.5348867378812
 20
1037.324119259801
 30
0.0
 10
874.5348867378812
 20
1037.324119259801
 30
0.0
 10
856.0772330292026
 20
1037.324119259801
 30
0.0
 10
856.0772330292026
 20
1037.324119259801
 30
0.0
 10
855.3695415019383
 20
1037.324119259801
 30
0.0
 10
854.6846334613723
 20
1037.574302221989
 30
0.0
 10
854.1435632347456
 20
1038.030449465344
 30
0.0
 10
854.1435632347456
 20
1038.030449465344
 30
0.0
 10
851.7779436994507
 20
1040.024776221371
 30
0.0
 10
851.7779436994507
 20
1040.024776221371
 30
0.0
 10
851.1503022365639
 20
1040.553907023663
 30
0.0
 10
850.355808909507
 20
1040.844119259801
 30
0.0
 10
849.5348867378803
 20
1040.844119259801
 30
0.0
 10
849.5348867378803
 20
1040.844119259801
 30
0.0
 10
840.3060598835413
 20
1040.844119259801
 30
0.0
 10
840.3060598835413
 20
1040.844119259801
 30
0.0
 10
840.3060598835413
 20
1040.844119259801
 30
0.0
 10
831.077233029203
 20
1040.844119259801
 30
0.0
 10
831.077233029203
 20
1040.844119259801
 30
0.0
 10
830.2563108575755
 20
1040.844119259801
 30
0.0
 10
829.4618175305194
 20
1040.553907023663
 30
0.0
 10
828.8341760676321
 20
1040.024776221371
 30
0.0
 10
828.8341760676321
 20
1040.024776221371
 30
0.0
 10
826.4685565323377
 20
1038.030449465344
 30
0.0
 10
826.4685565323377
 20
1038.030449465344
 30
0.0
 10
825.9274863057116
 20
1037.574302221989
 30
0.0
 10
825.2425782651455
 20
1037.324119259801
 30
0.0
 10
824.5348867378806
 20
1037.324119259801
 30
0.0
 10
824.5348867378806
 20
1037.324119259801
 30
0.0
 10
806.0772330292026
 20
1037.324119259801
 30
0.0
 10
806.0772330292026
 20
1037.324119259801
 30
0.0
 10
805.3695415019385
 20
1037.324119259801
 30
0.0
 10
804.6846334613723
 20
1037.574302221988
 30
0.0
 10
804.1435632347456
 20
1038.030449465344
 30
0.0
 10
804.1435632347456
 20
1038.030449465344
 30
0.0
 10
801.7779436994509
 20
1040.024776221371
 30
0.0
 10
801.7779436994509
 20
1040.024776221371
 30
0.0
 10
801.1503022365641
 20
1040.553907023663
 30
0.0
 10
800.3558089095079
 20
1040.844119259801
 30
0.0
 10
799.534886737881
 20
1040.844119259801
 30
0.0
 10
799.534886737881
 20
1040.844119259801
 30
0.0
 10
790.3060598835422
 20
1040.844119259801
 30
0.0
 10
790.3060598835422
 20
1040.844119259801
 30
0.0
 10
790.3060598835422
 20
1040.844119259801
 30
0.0
 10
781.0772330292024
 20
1040.844119259801
 30
0.0
 10
781.0772330292024
 20
1040.844119259801
 30
0.0
 10
780.2563108575764
 20
1040.844119259801
 30
0.0
 10
779.4618175305202
 20
1040.553907023663
 30
0.0
 10
778.8341760676328
 20
1040.024776221371
 30
0.0
 10
778.8341760676328
 20
1040.024776221371
 30
0.0
 10
776.4685565323378
 20
1038.030449465344
 30
0.0
 10
776.4685565323378
 20
1038.030449465344
 30
0.0
 10
775.9274863057111
 20
1037.574302221988
 30
0.0
 10
775.2425782651457
 20
1037.324119259801
 30
0.0
 10
774.5348867378808
 20
1037.324119259801
 30
0.0
 10
774.5348867378808
 20
1037.324119259801
 30
0.0
 10
756.0772330292029
 20
1037.324119259801
 30
0.0
 10
756.0772330292029
 20
1037.324119259801
 30
0.0
 10
755.3695415019387
 20
1037.324119259801
 30
0.0
 10
754.6846334613726
 20
1037.574302221988
 30
0.0
 10
754.1435632347458
 20
1038.030449465344
 30
0.0
 10
754.1435632347458
 20
1038.030449465344
 30
0.0
 10
751.7779436994516
 20
1040.024776221371
 30
0.0
 10
751.7779436994516
 20
1040.024776221371
 30
0.0
 10
751.1503022365642
 20
1040.553907023662
 30
0.0
 10
750.355808909508
 20
1040.844119259801
 30
0.0
 10
749.5348867378813
 20
1040.844119259801
 30
0.0
 10
749.5348867378813
 20
1040.844119259801
 30
0.0
 10
740.3060598835423
 20
1040.844119259801
 30
0.0
 10
740.3060598835423
 20
1040.844119259801
 30
0.0
 10
740.3060598835423
 20
1040.844119259801
 30
0.0
 10
731.0772330292032
 20
1040.844119259801
 30
0.0
 10
731.0772330292032
 20
1040.844119259801
 30
0.0
 10
730.2563108575758
 20
1040.844119259801
 30
0.0
 10
729.4618175305195
 20
1040.553907023663
 30
0.0
 10
728.8341760676329
 20
1040.024776221371
 30
0.0
 10
728.8341760676329
 20
1040.024776221371
 30
0.0
 10
726.4685565323381
 20
1038.030449465344
 30
0.0
 10
726.4685565323381
 20
1038.030449465344
 30
0.0
 10
725.9274863057119
 20
1037.574302221988
 30
0.0
 10
725.2425782651458
 20
1037.324119259801
 30
0.0
 10
724.5348867378815
 20
1037.324119259801
 30
0.0
 10
724.5348867378815
 20
1037.324119259801
 30
0.0
 10
706.0772330292031
 20
1037.324119259801
 30
0.0
 10
706.0772330292031
 20
1037.324119259801
 30
0.0
 10
705.3695415019388
 20
1037.3241192598
 30
0.0
 10
704.6846334613727
 20
1037.574302221988
 30
0.0
 10
704.143563234746
 20
1038.030449465344
 30
0.0
 10
704.143563234746
 20
1038.030449465344
 30
0.0
 10
701.7779436994511
 20
1040.024776221371
 30
0.0
 10
701.7779436994511
 20
1040.024776221371
 30
0.0
 10
701.1503022365644
 20
1040.553907023662
 30
0.0
 10
700.3558089095082
 20
1040.8441192598
 30
0.0
 10
699.5348867378814
 20
1040.8441192598
 30
0.0
 10
699.5348867378814
 20
1040.8441192598
 30
0.0
 10
690.3060598835423
 20
1040.844119259801
 30
0.0
 10
690.3060598835423
 20
1040.844119259801
 30
0.0
 10
690.3060598835423
 20
1040.844119259801
 30
0.0
 10
681.0772330292035
 20
1040.844119259801
 30
0.0
 10
681.0772330292035
 20
1040.844119259801
 30
0.0
 10
680.2563108575766
 20
1040.844119259801
 30
0.0
 10
679.4618175305203
 20
1040.553907023662
 30
0.0
 10
678.8341760676337
 20
1040.024776221371
 30
0.0
 10
678.8341760676337
 20
1040.024776221371
 30
0.0
 10
676.4685565323381
 20
1038.030449465344
 30
0.0
 10
676.4685565323381
 20
1038.030449465344
 30
0.0
 10
675.9274863057115
 20
1037.574302221988
 30
0.0
 10
675.2425782651459
 20
1037.324119259801
 30
0.0
 10
674.5348867378818
 20
1037.324119259801
 30
0.0
 10
674.5348867378818
 20
1037.324119259801
 30
0.0
 10
656.0772330292032
 20
1037.324119259801
 30
0.0
 10
656.0772330292032
 20
1037.324119259801
 30
0.0
 10
655.369541501939
 20
1037.3241192598
 30
0.0
 10
654.6846334613729
 20
1037.574302221988
 30
0.0
 10
654.1435632347468
 20
1038.030449465344
 30
0.0
 10
654.1435632347468
 20
1038.030449465344
 30
0.0
 10
651.7779436994519
 20
1040.024776221371
 30
0.0
 10
651.7779436994519
 20
1040.024776221371
 30
0.0
 10
651.1503022365645
 20
1040.553907023662
 30
0.0
 10
650.3558089095084
 20
1040.8441192598
 30
0.0
 10
649.5348867378815
 20
1040.8441192598
 30
0.0
 10
649.5348867378815
 20
1040.8441192598
 30
0.0
 10
640.3060598835426
 20
1040.844119259801
 30
0.0
 10
640.3060598835426
 20
1040.844119259801
 30
0.0
 10
640.3060598835426
 20
1040.844119259801
 30
0.0
 10
631.0772330292036
 20
1040.844119259801
 30
0.0
 10
631.0772330292036
 20
1040.844119259801
 30
0.0
 10
630.2563108575768
 20
1040.8441192598
 30
0.0
 10
629.4618175305199
 20
1040.553907023662
 30
0.0
 10
628.8341760676332
 20
1040.024776221371
 30
0.0
 10
628.8341760676332
 20
1040.024776221371
 30
0.0
 10
626.4685565323389
 20
1038.030449465344
 30
0.0
 10
626.4685565323389
 20
1038.030449465344
 30
0.0
 10
625.9274863057122
 20
1037.574302221988
 30
0.0
 10
625.2425782651462
 20
1037.3241192598
 30
0.0
 10
624.5348867378819
 20
1037.3241192598
 30
0.0
 10
624.5348867378819
 20
1037.3241192598
 30
0.0
 10
606.0772330292033
 20
1037.3241192598
 30
0.0
 10
606.0772330292033
 20
1037.3241192598
 30
0.0
 10
605.3695415019391
 20
1037.3241192598
 30
0.0
 10
604.6846334613737
 20
1037.574302221988
 30
0.0
 10
604.143563234747
 20
1038.030449465344
 30
0.0
 10
604.143563234747
 20
1038.030449465344
 30
0.0
 10
601.777943699452
 20
1040.024776221371
 30
0.0
 10
601.777943699452
 20
1040.024776221371
 30
0.0
 10
601.1503022365647
 20
1040.553907023662
 30
0.0
 10
600.3558089095085
 20
1040.8441192598
 30
0.0
 10
599.5348867378817
 20
1040.8441192598
 30
0.0
 10
599.5348867378817
 20
1040.8441192598
 30
0.0
 10
590.3060598835427
 20
1040.8441192598
 30
0.0
 10
590.3060598835427
 20
1040.8441192598
 30
0.0
 10
590.3060598835427
 20
1040.8441192598
 30
0.0
 10
581.0772330292038
 20
1040.8441192598
 30
0.0
 10
581.0772330292038
 20
1040.8441192598
 30
0.0
 10
580.2563108575769
 20
1040.8441192598
 30
0.0
 10
579.4618175305207
 20
1040.553907023662
 30
0.0
 10
578.834176067634
 20
1040.024776221371
 30
0.0
 10
578.834176067634
 20
1040.024776221371
 30
0.0
 10
576.4685565323385
 20
1038.030449465344
 30
0.0
 10
576.4685565323385
 20
1038.030449465344
 30
0.0
 10
575.9274863057124
 20
1037.574302221988
 30
0.0
 10
575.242578265147
 20
1037.3241192598
 30
0.0
 10
574.5348867378821
 20
1037.3241192598
 30
0.0
 10
574.5348867378821
 20
1037.3241192598
 30
0.0
 10
556.0772330292041
 20
1037.3241192598
 30
0.0
 10
556.0772330292041
 20
1037.3241192598
 30
0.0
 10
555.3695415019393
 20
1037.3241192598
 30
0.0
 10
554.6846334613738
 20
1037.574302221988
 30
0.0
 10
554.1435632347471
 20
1038.030449465344
 30
0.0
 10
554.1435632347471
 20
1038.030449465344
 30
0.0
 10
551.7779436994523
 20
1040.02477622137
 30
0.0
 10
551.7779436994523
 20
1040.02477622137
 30
0.0
 10
551.1503022365655
 20
1040.553907023662
 30
0.0
 10
550.3558089095086
 20
1040.8441192598
 30
0.0
 10
549.5348867378818
 20
1040.8441192598
 30
0.0
 10
549.5348867378818
 20
1040.8441192598
 30
0.0
 10
540.306059883543
 20
1040.8441192598
 30
0.0
 10
540.306059883543
 20
1040.8441192598
 30
0.0
 10
540.306059883543
 20
1040.8441192598
 30
0.0
 10
531.0772330292039
 20
1040.8441192598
 30
0.0
 10
531.0772330292039
 20
1040.8441192598
 30
0.0
 10
530.2563108575772
 20
1040.8441192598
 30
0.0
 10
529.461817530521
 20
1040.553907023662
 30
0.0
 10
528.8341760676336
 20
1040.02477622137
 30
0.0
 10
528.8341760676336
 20
1040.02477622137
 30
0.0
 10
526.4685565323393
 20
1038.030449465344
 30
0.0
 10
526.4685565323393
 20
1038.030449465344
 30
0.0
 10
525.9274863057125
 20
1037.574302221988
 30
0.0
 10
525.2425782651465
 20
1037.3241192598
 30
0.0
 10
524.5348867378822
 20
1037.3241192598
 30
0.0
 10
524.5348867378822
 20
1037.3241192598
 30
0.0
 10
506.0772330292043
 20
1037.3241192598
 30
0.0
 10
506.0772330292043
 20
1037.3241192598
 30
0.0
 10
505.3695415019395
 20
1037.3241192598
 30
0.0
 10
504.684633461374
 20
1037.574302221988
 30
0.0
 10
504.1435632347472
 20
1038.030449465344
 30
0.0
 10
504.1435632347472
 20
1038.030449465344
 30
0.0
 10
501.7779436994524
 20
1040.02477622137
 30
0.0
 10
501.7779436994524
 20
1040.02477622137
 30
0.0
 10
501.150302236565
 20
1040.553907023662
 30
0.0
 10
500.3558089095088
 20
1040.8441192598
 30
0.0
 10
499.5348867378821
 20
1040.8441192598
 30
0.0
 10
499.5348867378821
 20
1040.8441192598
 30
0.0
 10
490.306059883543
 20
1040.8441192598
 30
0.0
 10
490.306059883543
 20
1040.8441192598
 30
0.0
 10
490.306059883543
 20
1040.8441192598
 30
0.0
 10
481.0772330292041
 20
1040.8441192598
 30
0.0
 10
481.0772330292041
 20
1040.8441192598
 30
0.0
 10
480.2563108575773
 20
1040.8441192598
 30
0.0
 10
479.4618175305211
 20
1040.553907023662
 30
0.0
 10
478.8341760676344
 20
1040.02477622137
 30
0.0
 10
478.8341760676344
 20
1040.02477622137
 30
0.0
 10
476.4685565323395
 20
1038.030449465344
 30
0.0
 10
476.4685565323395
 20
1038.030449465344
 30
0.0
 10
475.9274863057127
 20
1037.574302221988
 30
0.0
 10
475.2425782651466
 20
1037.3241192598
 30
0.0
 10
474.5348867378824
 20
1037.3241192598
 30
0.0
 10
474.5348867378824
 20
1037.3241192598
 30
0.0
 10
456.0772330292045
 20
1037.3241192598
 30
0.0
 10
456.0772330292045
 20
1037.3241192598
 30
0.0
 10
455.3695415019396
 20
1037.3241192598
 30
0.0
 10
454.6846334613741
 20
1037.574302221988
 30
0.0
 10
454.1435632347474
 20
1038.030449465343
 30
0.0
 10
454.1435632347474
 20
1038.030449465343
 30
0.0
 10
451.7779436994525
 20
1040.02477622137
 30
0.0
 10
451.7779436994525
 20
1040.02477622137
 30
0.0
 10
451.1503022365655
 20
1040.553907023662
 30
0.0
 10
450.3558089095093
 20
1040.8441192598
 30
0.0
 10
449.5348867378821
 20
1040.8441192598
 30
0.0
 10
449.5348867378821
 20
1040.8441192598
 30
0.0
 10
440.3060598835436
 20
1040.8441192598
 30
0.0
 10
440.3060598835436
 20
1040.8441192598
 30
0.0
 10
440.3060598835436
 20
1040.8441192598
 30
0.0
 10
431.0772330292046
 20
1040.8441192598
 30
0.0
 10
431.0772330292046
 20
1040.8441192598
 30
0.0
 10
430.2563108575775
 20
1040.8441192598
 30
0.0
 10
429.4618175305212
 20
1040.553907023662
 30
0.0
 10
428.8341760676342
 20
1040.02477622137
 30
0.0
 10
428.8341760676342
 20
1040.02477622137
 30
0.0
 10
426.4685565323397
 20
1038.030449465343
 30
0.0
 10
426.4685565323397
 20
1038.030449465343
 30
0.0
 10
425.9274863057131
 20
1037.574302221988
 30
0.0
 10
425.2425782651474
 20
1037.3241192598
 30
0.0
 10
424.5348867378825
 20
1037.3241192598
 30
0.0
 10
424.5348867378825
 20
1037.3241192598
 30
0.0
 10
406.0772330292047
 20
1037.3241192598
 30
0.0
 10
406.0772330292047
 20
1037.3241192598
 30
0.0
 10
405.3695415019401
 20
1037.3241192598
 30
0.0
 10
404.6846334613743
 20
1037.574302221988
 30
0.0
 10
404.1435632347476
 20
1038.030449465344
 30
0.0
 10
404.1435632347476
 20
1038.030449465344
 30
0.0
 10
401.7779436994527
 20
1040.024776221371
 30
0.0
 10
401.7779436994527
 20
1040.024776221371
 30
0.0
 10
401.1503022365657
 20
1040.553907023662
 30
0.0
 10
400.3558089095094
 20
1040.8441192598
 30
0.0
 10
399.5348867378823
 20
1040.8441192598
 30
0.0
 10
399.5348867378823
 20
1040.8441192598
 30
0.0
 10
390.3060598835434
 20
1040.8441192598
 30
0.0
 10
390.3060598835434
 20
1040.8441192598
 30
0.0
 10
390.3060598835434
 20
1040.8441192598
 30
0.0
 10
381.0772330292045
 20
1040.8441192598
 30
0.0
 10
381.0772330292045
 20
1040.8441192598
 30
0.0
 10
380.2563108575776
 20
1040.8441192598
 30
0.0
 10
379.4618175305215
 20
1040.553907023662
 30
0.0
 10
378.8341760676347
 20
1040.024776221371
 30
0.0
 10
378.8341760676347
 20
1040.024776221371
 30
0.0
 10
376.4685565323398
 20
1038.030449465344
 30
0.0
 10
376.4685565323398
 20
1038.030449465344
 30
0.0
 10
375.9274863057127
 20
1037.574302221988
 30
0.0
 10
375.2425782651469
 20
1037.3241192598
 30
0.0
 10
374.5348867378827
 20
1037.3241192598
 30
0.0
 10
374.5348867378827
 20
1037.3241192598
 30
0.0
 10
356.0772330292045
 20
1037.3241192598
 30
0.0
 10
356.0772330292045
 20
1037.3241192598
 30
0.0
 10
355.36954150194
 20
1037.3241192598
 30
0.0
 10
354.6846334613745
 20
1037.574302221988
 30
0.0
 10
354.1435632347478
 20
1038.030449465344
 30
0.0
 10
354.1435632347478
 20
1038.030449465344
 30
0.0
 10
351.7779436994529
 20
1040.024776221371
 30
0.0
 10
351.7779436994529
 20
1040.024776221371
 30
0.0
 10
351.1503022365662
 20
1040.553907023662
 30
0.0
 10
350.3558089095097
 20
1040.844119259801
 30
0.0
 10
349.5348867378829
 20
1040.844119259801
 30
0.0
 10
349.5348867378829
 20
1040.844119259801
 30
0.0
 10
340.3060598835436
 20
1040.844119259801
 30
0.0
 10
340.3060598835436
 20
1040.844119259801
 30
0.0
 10
340.3060598835436
 20
1040.844119259801
 30
0.0
 10
331.0772330292046
 20
1040.844119259801
 30
0.0
 10
331.0772330292046
 20
1040.844119259801
 30
0.0
 10
330.2563108575778
 20
1040.844119259801
 30
0.0
 10
329.4618175305215
 20
1040.553907023662
 30
0.0
 10
328.8341760676345
 20
1040.024776221371
 30
0.0
 10
328.8341760676345
 20
1040.024776221371
 30
0.0
 10
326.46855653234
 20
1038.030449465344
 30
0.0
 10
326.46855653234
 20
1038.030449465344
 30
0.0
 10
325.9274863057129
 20
1037.574302221988
 30
0.0
 10
325.2425782651471
 20
1037.3241192598
 30
0.0
 10
324.5348867378826
 20
1037.3241192598
 30
0.0
 10
324.5348867378826
 20
1037.3241192598
 30
0.0
 10
306.077233029205
 20
1037.324119259801
 30
0.0
 10
306.077233029205
 20
1037.324119259801
 30
0.0
 10
305.3695415019401
 20
1037.324119259801
 30
0.0
 10
304.6846334613747
 20
1037.574302221988
 30
0.0
 10
304.143563234748
 20
1038.030449465344
 30
0.0
 10
304.143563234748
 20
1038.030449465344
 30
0.0
 10
301.777943699453
 20
1040.024776221371
 30
0.0
 10
301.777943699453
 20
1040.024776221371
 30
0.0
 10
301.150302236566
 20
1040.553907023663
 30
0.0
 10
300.3558089095098
 20
1040.844119259801
 30
0.0
 10
299.5348867378827
 20
1040.844119259801
 30
0.0
 10
299.5348867378827
 20
1040.844119259801
 30
0.0
 10
290.306059883544
 20
1040.844119259801
 30
0.0
 10
290.306059883544
 20
1040.844119259801
 30
0.0
 10
290.306059883544
 20
1040.844119259801
 30
0.0
 10
281.0772330292047
 20
1040.844119259801
 30
0.0
 10
281.0772330292047
 20
1040.844119259801
 30
0.0
 10
280.256310857578
 20
1040.844119259801
 30
0.0
 10
279.4618175305217
 20
1040.553907023663
 30
0.0
 10
278.8341760676347
 20
1040.024776221371
 30
0.0
 10
278.8341760676347
 20
1040.024776221371
 30
0.0
 10
276.4685565323398
 20
1038.030449465344
 30
0.0
 10
276.4685565323398
 20
1038.030449465344
 30
0.0
 10
275.9274863057131
 20
1037.574302221988
 30
0.0
 10
275.2425782651473
 20
1037.324119259801
 30
0.0
 10
274.5348867378827
 20
1037.324119259801
 30
0.0
 10
274.5348867378827
 20
1037.324119259801
 30
0.0
 10
256.0772330292049
 20
1037.324119259801
 30
0.0
 10
256.0772330292049
 20
1037.324119259801
 30
0.0
 10
255.3695415019403
 20
1037.324119259801
 30
0.0
 10
254.6846334613745
 20
1037.574302221989
 30
0.0
 10
254.1435632347481
 20
1038.030449465344
 30
0.0
 10
254.1435632347481
 20
1038.030449465344
 30
0.0
 10
251.7779436994532
 20
1040.024776221371
 30
0.0
 10
251.7779436994532
 20
1040.024776221371
 30
0.0
 10
251.1503022365662
 20
1040.553907023663
 30
0.0
 10
250.3558089095097
 20
1040.844119259801
 30
0.0
 10
249.5348867378828
 20
1040.844119259801
 30
0.0
 10
249.5348867378828
 20
1040.844119259801
 30
0.0
 10
240.3060598835439
 20
1040.844119259801
 30
0.0
 10
240.3060598835439
 20
1040.844119259801
 30
0.0
 10
240.3060598835439
 20
1040.844119259801
 30
0.0
 10
231.0772330292049
 20
1040.844119259801
 30
0.0
 10
231.0772330292049
 20
1040.844119259801
 30
0.0
 10
230.2563108575778
 20
1040.844119259801
 30
0.0
 10
229.4618175305216
 20
1040.553907023663
 30
0.0
 10
228.8341760676345
 20
1040.024776221371
 30
0.0
 10
228.8341760676345
 20
1040.024776221371
 30
0.0
 10
226.46855653234
 20
1038.030449465344
 30
0.0
 10
226.46855653234
 20
1038.030449465344
 30
0.0
 10
225.9274863057132
 20
1037.574302221989
 30
0.0
 10
225.2425782651475
 20
1037.324119259801
 30
0.0
 10
224.5348867378829
 20
1037.324119259801
 30
0.0
 10
224.5348867378829
 20
1037.324119259801
 30
0.0
 10
206.077233029205
 20
1037.324119259801
 30
0.0
 10
206.077233029205
 20
1037.324119259801
 30
0.0
 10
205.3695415019404
 20
1037.324119259801
 30
0.0
 10
204.6846334613747
 20
1037.574302221989
 30
0.0
 10
204.143563234748
 20
1038.030449465344
 30
0.0
 10
204.143563234748
 20
1038.030449465344
 30
0.0
 10
201.7779436994534
 20
1040.024776221371
 30
0.0
 10
201.7779436994534
 20
1040.024776221371
 30
0.0
 10
201.1503022365663
 20
1040.553907023663
 30
0.0
 10
200.3558089095101
 20
1040.844119259801
 30
0.0
 10
199.534886737883
 20
1040.844119259801
 30
0.0
 10
199.534886737883
 20
1040.844119259801
 30
0.0
 10
190.306059883544
 20
1040.844119259801
 30
0.0
 10
190.306059883544
 20
1040.844119259801
 30
0.0
 10
190.306059883544
 20
1040.844119259801
 30
0.0
 10
181.0772330292051
 20
1040.844119259801
 30
0.0
 10
181.0772330292051
 20
1040.844119259801
 30
0.0
 10
180.2563108575783
 20
1040.844119259801
 30
0.0
 10
179.4618175305221
 20
1040.553907023663
 30
0.0
 10
178.834176067635
 20
1040.024776221371
 30
0.0
 10
178.834176067635
 20
1040.024776221371
 30
0.0
 10
176.4685565323401
 20
1038.030449465344
 30
0.0
 10
176.4685565323401
 20
1038.030449465344
 30
0.0
 10
175.9274863057134
 20
1037.574302221989
 30
0.0
 10
175.2425782651476
 20
1037.324119259801
 30
0.0
 10
174.5348867378831
 20
1037.324119259801
 30
0.0
 10
174.5348867378831
 20
1037.324119259801
 30
0.0
 10
156.0772330292051
 20
1037.324119259801
 30
0.0
 10
156.0772330292051
 20
1037.324119259801
 30
0.0
 10
155.3695415019406
 20
1037.324119259801
 30
0.0
 10
154.6846334613748
 20
1037.574302221989
 30
0.0
 10
154.1435632347484
 20
1038.030449465345
 30
0.0
 10
154.1435632347484
 20
1038.030449465345
 30
0.0
 10
151.7779436994532
 20
1040.024776221371
 30
0.0
 10
151.7779436994532
 20
1040.024776221371
 30
0.0
 10
151.1503022365665
 20
1040.553907023663
 30
0.0
 10
150.3558089095099
 20
1040.844119259801
 30
0.0
 10
149.5348867378831
 20
1040.844119259801
 30
0.0
 10
149.5348867378831
 20
1040.844119259801
 30
0.0
 10
140.3060598835442
 20
1040.844119259801
 30
0.0
 10
140.3060598835442
 20
1040.844119259801
 30
0.0
 10
140.3060598835442
 20
1040.844119259801
 30
0.0
 10
131.0772330292049
 20
1040.844119259801
 30
0.0
 10
131.0772330292049
 20
1040.844119259801
 30
0.0
 10
130.2563108575781
 20
1040.844119259801
 30
0.0
 10
129.4618175305219
 20
1040.553907023664
 30
0.0
 10
128.8341760676348
 20
1040.024776221372
 30
0.0
 10
128.8341760676348
 20
1040.024776221372
 30
0.0
 10
126.46855653234
 20
1038.030449465345
 30
0.0
 10
126.46855653234
 20
1038.030449465345
 30
0.0
 10
125.9274863057135
 20
1037.57430222199
 30
0.0
 10
125.2425782651478
 20
1037.324119259801
 30
0.0
 10
124.5348867378832
 20
1037.324119259801
 30
0.0
 10
124.5348867378832
 20
1037.324119259801
 30
0.0
 10
106.077233029205
 20
1037.324119259801
 30
0.0
 10
106.077233029205
 20
1037.324119259801
 30
0.0
 10
105.3695415019404
 20
1037.324119259801
 30
0.0
 10
104.684633461375
 20
1037.57430222199
 30
0.0
 10
104.1435632347482
 20
1038.030449465345
 30
0.0
 10
104.1435632347482
 20
1038.030449465345
 30
0.0
 10
101.7779436994533
 20
1040.024776221372
 30
0.0
 10
101.7779436994533
 20
1040.024776221372
 30
0.0
 10
101.1503022365663
 20
1040.553907023664
 30
0.0
 10
100.3558089095101
 20
1040.844119259801
 30
0.0
 10
99.53488673788331
 20
1040.844119259801
 30
0.0
 10
99.53488673788331
 20
1040.844119259801
 30
0.0
 10
90.30605988354404
 20
1040.844119259801
 30
0.0
 10
90.30605988354404
 20
1040.844119259801
 30
0.0
 10
90.30605988354404
 20
1040.844119259801
 30
0.0
 10
81.0772330292051
 20
1040.844119259802
 30
0.0
 10
81.0772330292051
 20
1040.844119259802
 30
0.0
 10
80.25631085757828
 20
1040.844119259802
 30
0.0
 10
79.46181753052207
 20
1040.553907023664
 30
0.0
 10
78.83417606763503
 20
1040.024776221372
 30
0.0
 10
78.83417606763503
 20
1040.024776221372
 30
0.0
 10
76.46855653234014
 20
1038.030449465345
 30
0.0
 10
76.46855653234014
 20
1038.030449465345
 30
0.0
 10
75.9274863057134
 20
1037.57430222199
 30
0.0
 10
75.24257826514762
 20
1037.324119259801
 30
0.0
 10
74.53488673788307
 20
1037.324119259801
 30
0.0
 10
74.53488673788307
 20
1037.324119259801
 30
0.0
 10
56.07723302920518
 20
1037.324119259802
 30
0.0
 10
56.07723302920518
 20
1037.324119259802
 30
0.0
 10
55.36954150194063
 20
1037.324119259802
 30
0.0
 10
54.68463346137484
 20
1037.57430222199
 30
0.0
 10
54.14356323474842
 20
1038.030449465345
 30
0.0
 10
54.14356323474842
 20
1038.030449465345
 30
0.0
 10
53.69954638346685
 20
1038.404776221371
 30
0.0
 10
53.69954638346685
 20
1038.404776221371
 30
0.0
 10
53.07190492057982
 20
1038.933907023663
 30
0.0
 10
52.27741159352328
 20
1039.224119259801
 30
0.0
 10
51.45648942189647
 20
1039.224119259801
 30
0.0
 10
51.45648942189647
 20
1039.224119259801
 30
0.0
 10
40.3060598835442
 20
1039.224119259801
 30
0.0
 10
40.3060598835442
 20
1039.224119259801
 30
0.0
 10
40.3060598835442
 20
1039.224119259801
 30
0.0
 10
32.07723302920529
 20
1039.224119259801
 30
0.0
 10
32.07723302920529
 20
1039.224119259801
 30
0.0
  0
SPLINE
  5
BD
330
70
100
AcDbEntity
  8
O1
 62
    18
420
        0
370
    25
100
AcDbSpline
210
0.0
220
0.0
230
1.0
 70
     8
 71
     3
 72
   485
 73
   481
 74
     0
 42
0.0000000001
 43
0.0000000001
 40
0.0
 40
0.0
 40
0.0
 40
0.0
 40
1.0
 40
1.0
 40
1.0
 40
2.0
 40
2.0
 40
2.0
 40
3.0
 40
3.0
 40
3.0
 40
4.0
 40
4.0
 40
4.0
 40
5.0
 40
5.0
 40
5.0
 40
6.0
 40
6.0
 40
6.0
 40
7.0
 40
7.0
 40
7.0
 40
8.0
 40
8.0
 40
8.0
 40
9.0
 40
9.0
 40
9.0
 40
10.0
 40
10.0
 40
10.0
 40
11.0
 40
11.0
 40
11.0
 40
12.0
 40
12.0
 40
12.0
 40
13.0
 40
13.0
 40
13.0
 40
14.0
 40
14.0
 40
14.0
 40
15.0
 40
15.0
 40
15.0
 40
16.0
 40
16.0
 40
16.0
 40
17.0
 40
17.0
 40
17.0
 40
18.0
 40
18.0
 40
18.0
 40
19.0
 40
19.0
 40
19.0
 40
20.0
 40
20.0
 40
20.0
 40
21.0
 40
21.0
 40
21.0
 40
22.0
 40
22.0
 40
22.0
 40
23.0
 40
23.0
 40
23.0
 40
24.0
 40
24.0
 40
24.0
 40
25.0
 40
25.0
 40
25.0
 40
26.0
 40
26.0
 40
26.0
 40
27.0
 40
27.0
 40
27.0
 40
28.0
 40
28.0
 40
28.0
 40
29.0
 40
29.0
 40
29.0
 40
30.0
 40
30.0
 40
30.0
 40
31.0
 40
31.0
 40
31.0
 40
32.0
 40
32.0
 40
32.0
 40
33.0
 40
33.0
 40
33.0
 40
34.0
 40
34.0
 40
34.0
 40
35.0
 40
35.0
 40
35.0
 40
36.0
 40
36.0
 40
36.0
 40
37.0
 40
37.0
 40
37.0
 40
38.0
 40
38.0
 40
38.0
 40
39.0
 40
39.0
 40
39.0
 40
40.0
 40
40.0
 40
40.0
 40
41.0
 40
41.0
 40
41.0
 40
42.0
 40
42.0
 40
42.0
 40
43.0
 40
43.0
 40
43.0
 40
44.0
 40
44.0
 40
44.0
 40
45.0
 40
45.0
 40
45.0
 40
46.0
 40
46.0
 40
46.0
 40
47.0
 40
47.0
 40
47.0
 40
48.0
 40
48.0
 40
48.0
 40
49.0
 40
49.0
 40
49.0
 40
50.0
 40
50.0
 40
50.0
 40
51.0
 40
51.0
 40
51.0
 40
52.0
 40
52.0
 40
52.0
 40
53.0
 40
53.0
 40
53.0
 40
54.0
 40
54.0
 40
54.0
 40
55.0
 40
55.0
 40
55.0
 40
56.0
 40
56.0
 40
56.0
 40
57.0
 40
57.0
 40
57.0
 40
58.0
 40
58.0
 40
58.0
 40
59.0
 40
59.0
 40
59.0
 40
60.0
 40
60.0
 40
60.0
 40
61.0
 40
61.0
 40
61.0
 40
62.0
 40
62.0
 40
62.0
 40
63.0
 40
63.0
 40
63.0
 40
64.0
 40
64.0
 40
64.0
 40
65.0
 40
65.0
 40
65.0
 40
66.0
 40
66.0
 40
66.0
 40
67.0
 40
67.0
 40
67.0
 40
68.0
 40
68.0
 40
68.0
 40
69.0
 40
69.0
 40
69.0
 40
70.0
 40
70.0
 40
70.0
 40
71.0
 40
71.0
 40
71.0
 40
72.0
 40
72.0
 40
72.0
 40
73.0
 40
73.0
 40
73.0
 40
74.0
 40
74.0
 40
74.0
 40
75.0
 40
75.0
 40
75.0
 40
76.0
 40
76.0
 40
76.0
 40
77.0
 40
77.0
 40
77.0
 40
78.0
 40
78.0
 40
78.0
 40
79.0
 40
79.0
 40
79.0
 40
80.0
 40
80.0
 40
80.0
 40
81.0
 40
81.0
 40
81.0
 40
82.0
 40
82.0
 40
82.0
 40
83.0
 40
83.0
 40
83.0
 40
84.0
 40
84.0
 40
84.0
 40
85.0
 40
85.0
 40
85.0
 40
86.0
 40
86.0
 40
86.0
 40
87.0
 40
87.0
 40
87.0
 40
88.0
 40
88.0
 40
88.0
 40
89.0
 40
89.0
 40
89.0
 40
90.0
 40
90.0
 40
90.0
 40
91.0
 40
91.0
 40
91.0
 40
92.0
 40
92.0
 40
92.0
 40
93.0
 40
93.0
 40
93.0
 40
94.0
 40
94.0
 40
94.0
 40
95.0
 40
95.0
 40
95.0
 40
96.0
 40
96.0
 40
96.0
 40
97.0
 40
97.0
 40
97.0
 40
98.0
 40
98.0
 40
98.0
 40
99.0
 40
99.0
 40
99.0
 40
100.0
 40
100.0
 40
100.0
 40
101.0
 40
101.0
 40
101.0
 40
102.0
 40
102.0
 40
102.0
 40
103.0
 40
103.0
 40
103.0
 40
104.0
 40
104.0
 40
104.0
 40
105.0
 40
105.0
 40
105.0
 40
106.0
 40
106.0
 40
106.0
 40
107.0
 40
107.0
 40
107.0
 40
108.0
 40
108.0
 40
108.0
 40
109.0
 40
109.0
 40
109.0
 40
110.0
 40
110.0
 40
110.0
 40
111.0
 40
111.0
 40
111.0
 40
112.0
 40
112.0
 40
112.0
 40
113.0
 40
113.0
 40
113.0
 40
114.0
 40
114.0
 40
114.0
 40
115.0
 40
115.0
 40
115.0
 40
116.0
 40
116.0
 40
116.0
 40
117.0
 40
117.0
 40
117.0
 40
118.0
 40
118.0
 40
118.0
 40
119.0
 40
119.0
 40
119.0
 40
120.0
 40
120.0
 40
120.0
 40
121.0
 40
121.0
 40
121.0
 40
122.0
 40
122.0
 40
122.0
 40
123.0
 40
123.0
 40
123.0
 40
124.0
 40
124.0
 40
124.0
 40
125.0
 40
125.0
 40
125.0
 40
126.0
 40
126.0
 40
126.0
 40
127.0
 40
127.0
 40
127.0
 40
128.0
 40
128.0
 40
128.0
 40
129.0
 40
129.0
 40
129.0
 40
130.0
 40
130.0
 40
130.0
 40
131.0
 40
131.0
 40
131.0
 40
132.0
 40
132.0
 40
132.0
 40
133.0
 40
133.0
 40
133.0
 40
134.0
 40
134.0
 40
134.0
 40
135.0
 40
135.0
 40
135.0
 40
136.0
 40
136.0
 40
136.0
 40
137.0
 40
137.0
 40
137.0
 40
138.0
 40
138.0
 40
138.0
 40
139.0
 40
139.0
 40
139.0
 40
140.0
 40
140.0
 40
140.0
 40
141.0
 40
141.0
 40
141.0
 40
142.0
 40
142.0
 40
142.0
 40
143.0
 40
143.0
 40
143.0
 40
144.0
 40
144.0
 40
144.0
 40
145.0
 40
145.0
 40
145.0
 40
146.0
 40
146.0
 40
146.0
 40
147.0
 40
147.0
 40
147.0
 40
148.0
 40
148.0
 40
148.0
 40
149.0
 40
149.0
 40
149.0
 40
150.0
 40
150.0
 40
150.0
 40
151.0
 40
151.0
 40
151.0
 40
152.0
 40
152.0
 40
152.0
 40
153.0
 40
153.0
 40
153.0
 40
154.0
 40
154.0
 40
154.0
 40
155.0
 40
155.0
 40
155.0
 40
156.0
 40
156.0
 40
156.0
 40
157.0
 40
157.0
 40
157.0
 40
158.0
 40
158.0
 40
158.0
 40
159.0
 40
159.0
 40
159.0
 40
160.0
 40
160.0
 40
160.0
 40
160.0
 10
32.07723302920529
 20
1038.744119259801
 30
0.0
 10
32.07723302920529
 20
1038.744119259801
 30
0.0
 10
40.3060598835442
 20
1038.744119259801
 30
0.0
 10
40.3060598835442
 20
1038.744119259801
 30
0.0
 10
40.3060598835442
 20
1038.744119259801
 30
0.0
 10
51.45648942189647
 20
1038.744119259801
 30
0.0
 10
51.45648942189647
 20
1038.744119259801
 30
0.0
 10
52.16418094916102
 20
1038.744119259801
 30
0.0
 10
52.8490889897268
 20
1038.493936297613
 30
0.0
 10
53.39015921635354
 20
1038.037789054258
 30
0.0
 10
53.39015921635354
 20
1038.037789054258
 30
0.0
 10
53.83417606763511
 20
1037.663462298232
 30
0.0
 10
53.83417606763511
 20
1037.663462298232
 30
0.0
 10
54.46181753052215
 20
1037.13433149594
 30
0.0
 10
55.25631085757836
 20
1036.844119259802
 30
0.0
 10
56.07723302920518
 20
1036.844119259802
 30
0.0
 10
56.07723302920518
 20
1036.844119259802
 30
0.0
 10
74.53488673788339
 20
1036.844119259802
 30
0.0
 10
74.53488673788339
 20
1036.844119259802
 30
0.0
 10
75.35580890951021
 20
1036.844119259802
 30
0.0
 10
76.15030223656642
 20
1037.13433149594
 30
0.0
 10
76.77794369945345
 20
1037.663462298231
 30
0.0
 10
76.77794369945345
 20
1037.663462298231
 30
0.0
 10
79.14356323474802
 20
1039.657789054259
 30
0.0
 10
79.14356323474802
 20
1039.657789054259
 30
0.0
 10
79.68463346137475
 20
1040.113936297613
 30
0.0
 10
80.36954150194054
 20
1040.364119259802
 30
0.0
 10
81.0772330292051
 20
1040.364119259802
 30
0.0
 10
81.0772330292051
 20
1040.364119259802
 30
0.0
 10
90.30605988354404
 20
1040.364119259802
 30
0.0
 10
90.30605988354404
 20
1040.364119259802
 30
0.0
 10
90.30605988354404
 20
1040.364119259802
 30
0.0
 10
99.53488673788331
 20
1040.364119259802
 30
0.0
 10
99.53488673788331
 20
1040.364119259802
 30
0.0
 10
100.2425782651478
 20
1040.364119259802
 30
0.0
 10
100.9274863057136
 20
1040.113936297613
 30
0.0
 10
101.4685565323404
 20
1039.657789054259
 30
0.0
 10
101.4685565323404
 20
1039.657789054259
 30
0.0
 10
103.8341760676352
 20
1037.663462298231
 30
0.0
 10
103.8341760676352
 20
1037.663462298231
 30
0.0
 10
104.461817530522
 20
1037.13433149594
 30
0.0
 10
105.2563108575782
 20
1036.844119259802
 30
0.0
 10
106.077233029205
 20
1036.844119259802
 30
0.0
 10
106.077233029205
 20
1036.844119259802
 30
0.0
 10
124.5348867378832
 20
1036.844119259801
 30
0.0
 10
124.5348867378832
 20
1036.844119259801
 30
0.0
 10
125.35580890951
 20
1036.844119259802
 30
0.0
 10
126.1503022365666
 20
1037.13433149594
 30
0.0
 10
126.7779436994533
 20
1037.663462298231
 30
0.0
 10
126.7779436994533
 20
1037.663462298231
 30
0.0
 10
129.1435632347482
 20
1039.657789054259
 30
0.0
 10
129.1435632347482
 20
1039.657789054259
 30
0.0
 10
129.6846334613746
 20
1040.113936297613
 30
0.0
 10
130.3695415019404
 20
1040.364119259801
 30
0.0
 10
131.0772330292049
 20
1040.364119259801
 30
0.0
 10
131.0772330292049
 20
1040.364119259801
 30
0.0
 10
140.3060598835442
 20
1040.364119259801
 30
0.0
 10
140.3060598835442
 20
1040.364119259801
 30
0.0
 10
140.3060598835442
 20
1040.364119259801
 30
0.0
 10
149.5348867378831
 20
1040.364119259802
 30
0.0
 10
149.5348867378831
 20
1040.364119259802
 30
0.0
 10
150.2425782651477
 20
1040.364119259801
 30
0.0
 10
150.9274863057134
 20
1040.113936297613
 30
0.0
 10
151.4685565323402
 20
1039.657789054258
 30
0.0
 10
151.4685565323402
 20
1039.657789054258
 30
0.0
 10
153.8341760676351
 20
1037.663462298231
 30
0.0
 10
153.8341760676351
 20
1037.663462298231
 30
0.0
 10
154.4618175305221
 20
1037.13433149594
 30
0.0
 10
155.2563108575784
 20
1036.844119259801
 30
0.0
 10
156.0772330292051
 20
1036.844119259801
 30
0.0
 10
156.0772330292051
 20
1036.844119259801
 30
0.0
 10
174.5348867378834
 20
1036.844119259801
 30
0.0
 10
174.5348867378834
 20
1036.844119259801
 30
0.0
 10
175.3558089095099
 20
1036.844119259801
 30
0.0
 10
176.1503022365661
 20
1037.134331495939
 30
0.0
 10
176.7779436994531
 20
1037.663462298231
 30
0.0
 10
176.7779436994531
 20
1037.663462298231
 30
0.0
 10
179.143563234748
 20
1039.657789054258
 30
0.0
 10
179.143563234748
 20
1039.657789054258
 30
0.0
 10
179.6846334613747
 20
1040.113936297613
 30
0.0
 10
180.3695415019405
 20
1040.364119259801
 30
0.0
 10
181.0772330292051
 20
1040.364119259801
 30
0.0
 10
181.0772330292051
 20
1040.364119259801
 30
0.0
 10
190.306059883544
 20
1040.364119259801
 30
0.0
 10
190.306059883544
 20
1040.364119259801
 30
0.0
 10
190.306059883544
 20
1040.364119259801
 30
0.0
 10
199.534886737883
 20
1040.364119259801
 30
0.0
 10
199.534886737883
 20
1040.364119259801
 30
0.0
 10
200.2425782651479
 20
1040.364119259801
 30
0.0
 10
200.9274863057133
 20
1040.113936297613
 30
0.0
 10
201.4685565323401
 20
1039.657789054258
 30
0.0
 10
201.4685565323401
 20
1039.657789054258
 30
0.0
 10
203.8341760676349
 20
1037.663462298231
 30
0.0
 10
203.8341760676349
 20
1037.663462298231
 30
0.0
 10
204.461817530522
 20
1037.134331495939
 30
0.0
 10
205.2563108575782
 20
1036.844119259801
 30
0.0
 10
206.0772330292053
 20
1036.844119259801
 30
0.0
 10
206.0772330292053
 20
1036.844119259801
 30
0.0
 10
224.5348867378832
 20
1036.844119259801
 30
0.0
 10
224.5348867378832
 20
1036.844119259801
 30
0.0
 10
225.3558089095101
 20
1036.844119259801
 30
0.0
 10
226.1503022365662
 20
1037.134331495939
 30
0.0
 10
226.777943699453
 20
1037.663462298231
 30
0.0
 10
226.777943699453
 20
1037.663462298231
 30
0.0
 10
229.1435632347479
 20
1039.657789054258
 30
0.0
 10
229.1435632347479
 20
1039.657789054258
 30
0.0
 10
229.6846334613743
 20
1040.113936297613
 30
0.0
 10
230.3695415019401
 20
1040.364119259801
 30
0.0
 10
231.0772330292049
 20
1040.364119259801
 30
0.0
 10
231.0772330292049
 20
1040.364119259801
 30
0.0
 10
240.3060598835439
 20
1040.364119259801
 30
0.0
 10
240.3060598835439
 20
1040.364119259801
 30
0.0
 10
240.3060598835439
 20
1040.364119259801
 30
0.0
 10
249.5348867378828
 20
1040.364119259801
 30
0.0
 10
249.5348867378828
 20
1040.364119259801
 30
0.0
 10
250.2425782651477
 20
1040.364119259801
 30
0.0
 10
250.9274863057135
 20
1040.113936297613
 30
0.0
 10
251.4685565323402
 20
1039.657789054258
 30
0.0
 10
251.4685565323402
 20
1039.657789054258
 30
0.0
 10
253.8341760676348
 20
1037.663462298231
 30
0.0
 10
253.8341760676348
 20
1037.663462298231
 30
0.0
 10
254.4618175305218
 20
1037.134331495939
 30
0.0
 10
255.256310857578
 20
1036.844119259801
 30
0.0
 10
256.0772330292049
 20
1036.844119259801
 30
0.0
 10
256.0772330292049
 20
1036.844119259801
 30
0.0
 10
274.5348867378827
 20
1036.844119259801
 30
0.0
 10
274.5348867378827
 20
1036.844119259801
 30
0.0
 10
275.3558089095099
 20
1036.844119259801
 30
0.0
 10
276.1503022365661
 20
1037.134331495939
 30
0.0
 10
276.7779436994532
 20
1037.663462298231
 30
0.0
 10
276.7779436994532
 20
1037.663462298231
 30
0.0
 10
279.1435632347477
 20
1039.657789054258
 30
0.0
 10
279.1435632347477
 20
1039.657789054258
 30
0.0
 10
279.6846334613745
 20
1040.113936297612
 30
0.0
 10
280.3695415019402
 20
1040.364119259801
 30
0.0
 10
281.0772330292047
 20
1040.364119259801
 30
0.0
 10
281.0772330292047
 20
1040.364119259801
 30
0.0
 10
290.306059883544
 20
1040.364119259801
 30
0.0
 10
290.306059883544
 20
1040.364119259801
 30
0.0
 10
290.306059883544
 20
1040.364119259801
 30
0.0
 10
299.5348867378827
 20
1040.364119259801
 30
0.0
 10
299.5348867378827
 20
1040.364119259801
 30
0.0
 10
300.2425782651475
 20
1040.364119259801
 30
0.0
 10
300.9274863057133
 20
1040.113936297613
 30
0.0
 10
301.4685565323397
 20
1039.657789054258
 30
0.0
 10
301.4685565323397
 20
1039.657789054258
 30
0.0
 10
303.8341760676346
 20
1037.663462298231
 30
0.0
 10
303.8341760676346
 20
1037.663462298231
 30
0.0
 10
304.4618175305217
 20
1037.134331495939
 30
0.0
 10
305.2563108575782
 20
1036.844119259801
 30
0.0
 10
306.077233029205
 20
1036.844119259801
 30
0.0
 10
306.077233029205
 20
1036.844119259801
 30
0.0
 10
324.5348867378829
 20
1036.844119259801
 30
0.0
 10
324.5348867378829
 20
1036.844119259801
 30
0.0
 10
325.3558089095097
 20
1036.844119259801
 30
0.0
 10
326.1503022365659
 20
1037.134331495939
 30
0.0
 10
326.777943699453
 20
1037.66346229823
 30
0.0
 10
326.777943699453
 20
1037.66346229823
 30
0.0
 10
329.1435632347479
 20
1039.657789054257
 30
0.0
 10
329.1435632347479
 20
1039.657789054257
 30
0.0
 10
329.6846334613743
 20
1040.113936297612
 30
0.0
 10
330.36954150194
 20
1040.364119259801
 30
0.0
 10
331.0772330292046
 20
1040.364119259801
 30
0.0
 10
331.0772330292046
 20
1040.364119259801
 30
0.0
 10
340.3060598835438
 20
1040.364119259801
 30
0.0
 10
340.3060598835438
 20
1040.364119259801
 30
0.0
 10
340.3060598835438
 20
1040.364119259801
 30
0.0
 10
349.5348867378829
 20
1040.364119259801
 30
0.0
 10
349.5348867378829
 20
1040.364119259801
 30
0.0
 10
350.2425782651474
 20
1040.364119259801
 30
0.0
 10
350.9274863057131
 20
1040.113936297612
 30
0.0
 10
351.4685565323396
 20
1039.657789054257
 30
0.0
 10
351.4685565323396
 20
1039.657789054257
 30
0.0
 10
353.8341760676348
 20
1037.663462298231
 30
0.0
 10
353.8341760676348
 20
1037.663462298231
 30
0.0
 10
354.4618175305215
 20
1037.134331495939
 30
0.0
 10
355.2563108575777
 20
1036.844119259801
 30
0.0
 10
356.0772330292045
 20
1036.844119259801
 30
0.0
 10
356.0772330292045
 20
1036.844119259801
 30
0.0
 10
374.5348867378827
 20
1036.8441192598
 30
0.0
 10
374.5348867378827
 20
1036.8441192598
 30
0.0
 10
375.3558089095096
 20
1036.8441192598
 30
0.0
 10
376.1503022365658
 20
1037.134331495938
 30
0.0
 10
376.7779436994525
 20
1037.66346229823
 30
0.0
 10
376.7779436994525
 20
1037.66346229823
 30
0.0
 10
379.1435632347477
 20
1039.657789054257
 30
0.0
 10
379.1435632347477
 20
1039.657789054257
 30
0.0
 10
379.6846334613745
 20
1040.113936297612
 30
0.0
 10
380.3695415019402
 20
1040.364119259801
 30
0.0
 10
381.0772330292047
 20
1040.364119259801
 30
0.0
 10
381.0772330292047
 20
1040.364119259801
 30
0.0
 10
390.3060598835434
 20
1040.364119259801
 30
0.0
 10
390.3060598835434
 20
1040.364119259801
 30
0.0
 10
390.3060598835434
 20
1040.364119259801
 30
0.0
 10
399.5348867378827
 20
1040.364119259801
 30
0.0
 10
399.5348867378827
 20
1040.364119259801
 30
0.0
 10
400.2425782651472
 20
1040.364119259801
 30
0.0
 10
400.927486305713
 20
1040.113936297612
 30
0.0
 10
401.4685565323397
 20
1039.657789054257
 30
0.0
 10
401.4685565323397
 20
1039.657789054257
 30
0.0
 10
403.8341760676346
 20
1037.66346229823
 30
0.0
 10
403.8341760676346
 20
1037.66346229823
 30
0.0
 10
404.4618175305213
 20
1037.134331495938
 30
0.0
 10
405.2563108575775
 20
1036.8441192598
 30
0.0
 10
406.0772330292047
 20
1036.8441192598
 30
0.0
 10
406.0772330292047
 20
1036.8441192598
 30
0.0
 10
424.5348867378825
 20
1036.8441192598
 30
0.0
 10
424.5348867378825
 20
1036.8441192598
 30
0.0
 10
425.3558089095093
 20
1036.8441192598
 30
0.0
 10
426.1503022365656
 20
1037.134331495938
 30
0.0
 10
426.7779436994526
 20
1037.663462298229
 30
0.0
 10
426.7779436994526
 20
1037.663462298229
 30
0.0
 10
429.1435632347472
 20
1039.657789054257
 30
0.0
 10
429.1435632347472
 20
1039.657789054257
 30
0.0
 10
429.6846334613739
 20
1040.113936297612
 30
0.0
 10
430.3695415019397
 20
1040.3641192598
 30
0.0
 10
431.0772330292043
 20
1040.3641192598
 30
0.0
 10
431.0772330292043
 20
1040.3641192598
 30
0.0
 10
440.3060598835436
 20
1040.3641192598
 30
0.0
 10
440.3060598835436
 20
1040.3641192598
 30
0.0
 10
440.3060598835436
 20
1040.3641192598
 30
0.0
 10
449.5348867378825
 20
1040.3641192598
 30
0.0
 10
449.5348867378825
 20
1040.3641192598
 30
0.0
 10
450.242578265147
 20
1040.3641192598
 30
0.0
 10
450.9274863057128
 20
1040.113936297612
 30
0.0
 10
451.4685565323398
 20
1039.657789054257
 30
0.0
 10
451.4685565323398
 20
1039.657789054257
 30
0.0
 10
453.8341760676341
 20
1037.66346229823
 30
0.0
 10
453.8341760676341
 20
1037.66346229823
 30
0.0
 10
454.4618175305215
 20
1037.134331495938
 30
0.0
 10
455.2563108575776
 20
1036.8441192598
 30
0.0
 10
456.0772330292045
 20
1036.8441192598
 30
0.0
 10
456.0772330292045
 20
1036.8441192598
 30
0.0
 10
474.5348867378824
 20
1036.8441192598
 30
0.0
 10
474.5348867378824
 20
1036.8441192598
 30
0.0
 10
475.3558089095093
 20
1036.8441192598
 30
0.0
 10
476.1503022365654
 20
1037.134331495938
 30
0.0
 10
476.7779436994522
 20
1037.66346229823
 30
0.0
 10
476.7779436994522
 20
1037.66346229823
 30
0.0
 10
479.1435632347477
 20
1039.657789054257
 30
0.0
 10
479.1435632347477
 20
1039.657789054257
 30
0.0
 10
479.6846334613737
 20
1040.113936297612
 30
0.0
 10
480.3695415019399
 20
1040.3641192598
 30
0.0
 10
481.0772330292041
 20
1040.3641192598
 30
0.0
 10
481.0772330292041
 20
1040.3641192598
 30
0.0
 10
490.306059883543
 20
1040.3641192598
 30
0.0
 10
490.306059883543
 20
1040.3641192598
 30
0.0
 10
490.306059883543
 20
1040.3641192598
 30
0.0
 10
499.5348867378827
 20
1040.3641192598
 30
0.0
 10
499.5348867378827
 20
1040.3641192598
 30
0.0
 10
500.2425782651469
 20
1040.3641192598
 30
0.0
 10
500.9274863057123
 20
1040.113936297612
 30
0.0
 10
501.468556532339
 20
1039.657789054257
 30
0.0
 10
501.468556532339
 20
1039.657789054257
 30
0.0
 10
503.8341760676339
 20
1037.66346229823
 30
0.0
 10
503.8341760676339
 20
1037.66346229823
 30
0.0
 10
504.4618175305207
 20
1037.134331495938
 30
0.0
 10
505.2563108575775
 20
1036.8441192598
 30
0.0
 10
506.0772330292043
 20
1036.8441192598
 30
0.0
 10
506.0772330292043
 20
1036.8441192598
 30
0.0
 10
524.5348867378822
 20
1036.8441192598
 30
0.0
 10
524.5348867378822
 20
1036.8441192598
 30
0.0
 10
525.355808909509
 20
1036.8441192598
 30
0.0
 10
526.1503022365652
 20
1037.134331495939
 30
0.0
 10
526.777943699452
 20
1037.66346229823
 30
0.0
 10
526.777943699452
 20
1037.66346229823
 30
0.0
 10
529.1435632347469
 20
1039.657789054257
 30
0.0
 10
529.1435632347469
 20
1039.657789054257
 30
0.0
 10
529.6846334613737
 20
1040.113936297612
 30
0.0
 10
530.3695415019391
 20
1040.364119259801
 30
0.0
 10
531.0772330292039
 20
1040.364119259801
 30
0.0
 10
531.0772330292039
 20
1040.364119259801
 30
0.0
 10
540.306059883543
 20
1040.364119259801
 30
0.0
 10
540.306059883543
 20
1040.364119259801
 30
0.0
 10
540.306059883543
 20
1040.364119259801
 30
0.0
 10
549.5348867378818
 20
1040.364119259801
 30
0.0
 10
549.5348867378818
 20
1040.364119259801
 30
0.0
 10
550.2425782651467
 20
1040.364119259801
 30
0.0
 10
550.9274863057128
 20
1040.113936297612
 30
0.0
 10
551.4685565323389
 20
1039.657789054257
 30
0.0
 10
551.4685565323389
 20
1039.657789054257
 30
0.0
 10
553.8341760676338
 20
1037.66346229823
 30
0.0
 10
553.8341760676338
 20
1037.66346229823
 30
0.0
 10
554.4618175305205
 20
1037.134331495939
 30
0.0
 10
555.2563108575767
 20
1036.844119259801
 30
0.0
 10
556.0772330292041
 20
1036.844119259801
 30
0.0
 10
556.0772330292041
 20
1036.844119259801
 30
0.0
 10
574.5348867378821
 20
1036.844119259801
 30
0.0
 10
574.5348867378821
 20
1036.844119259801
 30
0.0
 10
575.3558089095089
 20
1036.844119259801
 30
0.0
 10
576.1503022365651
 20
1037.134331495939
 30
0.0
 10
576.7779436994518
 20
1037.66346229823
 30
0.0
 10
576.7779436994518
 20
1037.66346229823
 30
0.0
 10
579.1435632347466
 20
1039.657789054257
 30
0.0
 10
579.1435632347466
 20
1039.657789054257
 30
0.0
 10
579.6846334613734
 20
1040.113936297612
 30
0.0
 10
580.3695415019396
 20
1040.364119259801
 30
0.0
 10
581.0772330292038
 20
1040.364119259801
 30
0.0
 10
581.0772330292038
 20
1040.364119259801
 30
0.0
 10
590.3060598835427
 20
1040.364119259801
 30
0.0
 10
590.3060598835427
 20
1040.364119259801
 30
0.0
 10
590.3060598835427
 20
1040.364119259801
 30
0.0
 10
599.5348867378817
 20
1040.364119259801
 30
0.0
 10
599.5348867378817
 20
1040.364119259801
 30
0.0
 10
600.2425782651465
 20
1040.364119259801
 30
0.0
 10
600.927486305712
 20
1040.113936297612
 30
0.0
 10
601.4685565323388
 20
1039.657789054257
 30
0.0
 10
601.4685565323388
 20
1039.657789054257
 30
0.0
 10
603.8341760676336
 20
1037.66346229823
 30
0.0
 10
603.8341760676336
 20
1037.66346229823
 30
0.0
 10
604.461817530521
 20
1037.134331495939
 30
0.0
 10
605.2563108575772
 20
1036.8441192598
 30
0.0
 10
606.077233029204
 20
1036.8441192598
 30
0.0
 10
606.077233029204
 20
1036.8441192598
 30
0.0
 10
624.5348867378819
 20
1036.844119259801
 30
0.0
 10
624.5348867378819
 20
1036.844119259801
 30
0.0
 10
625.3558089095088
 20
1036.844119259801
 30
0.0
 10
626.1503022365649
 20
1037.134331495939
 30
0.0
 10
626.7779436994517
 20
1037.66346229823
 30
0.0
 10
626.7779436994517
 20
1037.66346229823
 30
0.0
 10
629.1435632347465
 20
1039.657789054257
 30
0.0
 10
629.1435632347465
 20
1039.657789054257
 30
0.0
 10
629.6846334613726
 20
1040.113936297612
 30
0.0
 10
630.3695415019388
 20
1040.364119259801
 30
0.0
 10
631.0772330292036
 20
1040.364119259801
 30
0.0
 10
631.0772330292036
 20
1040.364119259801
 30
0.0
 10
640.3060598835426
 20
1040.364119259801
 30
0.0
 10
640.3060598835426
 20
1040.364119259801
 30
0.0
 10
640.3060598835426
 20
1040.364119259801
 30
0.0
 10
649.5348867378815
 20
1040.364119259801
 30
0.0
 10
649.5348867378815
 20
1040.364119259801
 30
0.0
 10
650.2425782651464
 20
1040.364119259801
 30
0.0
 10
650.9274863057119
 20
1040.113936297612
 30
0.0
 10
651.4685565323386
 20
1039.657789054257
 30
0.0
 10
651.4685565323386
 20
1039.657789054257
 30
0.0
 10
653.8341760676335
 20
1037.66346229823
 30
0.0
 10
653.8341760676335
 20
1037.66346229823
 30
0.0
 10
654.4618175305202
 20
1037.134331495939
 30
0.0
 10
655.2563108575764
 20
1036.844119259801
 30
0.0
 10
656.0772330292039
 20
1036.844119259801
 30
0.0
 10
656.0772330292039
 20
1036.844119259801
 30
0.0
 10
674.5348867378818
 20
1036.844119259801
 30
0.0
 10
674.5348867378818
 20
1036.844119259801
 30
0.0
 10
675.3558089095079
 20
1036.844119259801
 30
0.0
 10
676.1503022365648
 20
1037.134331495939
 30
0.0
 10
676.7779436994515
 20
1037.66346229823
 30
0.0
 10
676.7779436994515
 20
1037.66346229823
 30
0.0
 10
679.1435632347464
 20
1039.657789054257
 30
0.0
 10
679.1435632347464
 20
1039.657789054257
 30
0.0
 10
679.6846334613732
 20
1040.113936297612
 30
0.0
 10
680.3695415019392
 20
1040.364119259801
 30
0.0
 10
681.0772330292035
 20
1040.364119259801
 30
0.0
 10
681.0772330292035
 20
1040.364119259801
 30
0.0
 10
690.3060598835423
 20
1040.364119259801
 30
0.0
 10
690.3060598835423
 20
1040.364119259801
 30
0.0
 10
690.3060598835423
 20
1040.364119259801
 30
0.0
 10
699.5348867378814
 20
1040.364119259801
 30
0.0
 10
699.5348867378814
 20
1040.364119259801
 30
0.0
 10
700.2425782651462
 20
1040.364119259801
 30
0.0
 10
700.9274863057116
 20
1040.113936297612
 30
0.0
 10
701.4685565323384
 20
1039.657789054257
 30
0.0
 10
701.4685565323384
 20
1039.657789054257
 30
0.0
 10
703.8341760676334
 20
1037.663462298231
 30
0.0
 10
703.8341760676334
 20
1037.663462298231
 30
0.0
 10
704.4618175305201
 20
1037.134331495939
 30
0.0
 10
705.2563108575762
 20
1036.844119259801
 30
0.0
 10
706.0772330292031
 20
1036.844119259801
 30
0.0
 10
706.0772330292031
 20
1036.844119259801
 30
0.0
 10
724.534886737881
 20
1036.844119259801
 30
0.0
 10
724.534886737881
 20
1036.844119259801
 30
0.0
 10
725.3558089095085
 20
1036.844119259801
 30
0.0
 10
726.1503022365647
 20
1037.134331495939
 30
0.0
 10
726.7779436994514
 20
1037.663462298231
 30
0.0
 10
726.7779436994514
 20
1037.663462298231
 30
0.0
 10
729.1435632347462
 20
1039.657789054257
 30
0.0
 10
729.1435632347462
 20
1039.657789054257
 30
0.0
 10
729.6846334613724
 20
1040.113936297612
 30
0.0
 10
730.3695415019384
 20
1040.364119259801
 30
0.0
 10
731.0772330292032
 20
1040.364119259801
 30
0.0
 10
731.0772330292032
 20
1040.364119259801
 30
0.0
 10
740.3060598835423
 20
1040.364119259801
 30
0.0
 10
740.3060598835423
 20
1040.364119259801
 30
0.0
 10
740.3060598835423
 20
1040.364119259801
 30
0.0
 10
749.5348867378813
 20
1040.364119259801
 30
0.0
 10
749.5348867378813
 20
1040.364119259801
 30
0.0
 10
750.2425782651454
 20
1040.364119259801
 30
0.0
 10
750.9274863057116
 20
1040.113936297612
 30
0.0
 10
751.4685565323382
 20
1039.657789054258
 30
0.0
 10
751.4685565323382
 20
1039.657789054258
 30
0.0
 10
753.8341760676326
 20
1037.663462298231
 30
0.0
 10
753.8341760676326
 20
1037.663462298231
 30
0.0
 10
754.4618175305198
 20
1037.134331495939
 30
0.0
 10
755.256310857576
 20
1036.844119259801
 30
0.0
 10
756.0772330292036
 20
1036.844119259801
 30
0.0
 10
756.0772330292036
 20
1036.844119259801
 30
0.0
 10
774.5348867378808
 20
1036.844119259801
 30
0.0
 10
774.5348867378808
 20
1036.844119259801
 30
0.0
 10
775.3558089095077
 20
1036.844119259801
 30
0.0
 10
776.1503022365639
 20
1037.134331495939
 30
0.0
 10
776.7779436994512
 20
1037.663462298231
 30
0.0
 10
776.7779436994512
 20
1037.663462298231
 30
0.0
 10
779.1435632347461
 20
1039.657789054258
 30
0.0
 10
779.1435632347461
 20
1039.657789054258
 30
0.0
 10
779.6846334613729
 20
1040.113936297613
 30
0.0
 10
780.3695415019388
 20
1040.364119259801
 30
0.0
 10
781.0772330292031
 20
1040.364119259801
 30
0.0
 10
781.0772330292031
 20
1040.364119259801
 30
0.0
 10
790.3060598835422
 20
1040.364119259801
 30
0.0
 10
790.3060598835422
 20
1040.364119259801
 30
0.0
 10
790.3060598835422
 20
1040.364119259801
 30
0.0
 10
799.534886737881
 20
1040.364119259801
 30
0.0
 10
799.534886737881
 20
1040.364119259801
 30
0.0
 10
800.2425782651453
 20
1040.364119259801
 30
0.0
 10
800.9274863057115
 20
1040.113936297613
 30
0.0
 10
801.4685565323375
 20
1039.657789054258
 30
0.0
 10
801.4685565323375
 20
1039.657789054258
 30
0.0
 10
803.8341760676329
 20
1037.663462298231
 30
0.0
 10
803.8341760676329
 20
1037.663462298231
 30
0.0
 10
804.4618175305197
 20
1037.134331495939
 30
0.0
 10
805.2563108575759
 20
1036.844119259801
 30
0.0
 10
806.0772330292026
 20
1036.844119259801
 30
0.0
 10
806.0772330292026
 20
1036.844119259801
 30
0.0
 10
824.5348867378806
 20
1036.844119259801
 30
0.0
 10
824.5348867378806
 20
1036.844119259801
 30
0.0
 10
825.3558089095074
 20
1036.844119259801
 30
0.0
 10
826.1503022365637
 20
1037.134331495939
 30
0.0
 10
826.777943699451
 20
1037.663462298231
 30
0.0
 10
826.777943699451
 20
1037.663462298231
 30
0.0
 10
829.1435632347454
 20
1039.657789054258
 30
0.0
 10
829.1435632347454
 20
1039.657789054258
 30
0.0
 10
829.684633461372
 20
1040.113936297613
 30
0.0
 10
830.3695415019381
 20
1040.364119259801
 30
0.0
 10
831.077233029203
 20
1040.364119259801
 30
0.0
 10
831.077233029203
 20
1040.364119259801
 30
0.0
 10
840.306059883542
 20
1040.364119259801
 30
0.0
 10
840.306059883542
 20
1040.364119259801
 30
0.0
 10
840.306059883542
 20
1040.364119259801
 30
0.0
 10
849.5348867378808
 20
1040.364119259801
 30
0.0
 10
849.5348867378808
 20
1040.364119259801
 30
0.0
 10
850.2425782651451
 20
1040.364119259801
 30
0.0
 10
850.9274863057111
 20
1040.113936297613
 30
0.0
 10
851.4685565323379
 20
1039.657789054258
 30
0.0
 10
851.4685565323379
 20
1039.657789054258
 30
0.0
 10
853.8341760676322
 20
1037.663462298231
 30
0.0
 10
853.8341760676322
 20
1037.663462298231
 30
0.0
 10
854.4618175305195
 20
1037.134331495939
 30
0.0
 10
855.2563108575759
 20
1036.844119259801
 30
0.0
 10
856.0772330292026
 20
1036.844119259801
 30
0.0
 10
856.0772330292026
 20
1036.844119259801
 30
0.0
 10
874.5348867378805
 20
1036.844119259801
 30
0.0
 10
874.5348867378805
 20
1036.844119259801
 30
0.0
 10
875.3558089095074
 20
1036.844119259801
 30
0.0
 10
876.1503022365635
 20
1037.134331495939
 30
0.0
 10
876.7779436994509
 20
1037.663462298231
 30
0.0
 10
876.7779436994509
 20
1037.663462298231
 30
0.0
 10
879.1435632347457
 20
1039.657789054258
 30
0.0
 10
879.1435632347457
 20
1039.657789054258
 30
0.0
 10
879.6846334613725
 20
1040.113936297613
 30
0.0
 10
880.369541501938
 20
1040.364119259801
 30
0.0
 10
881.0772330292023
 20
1040.364119259801
 30
0.0
 10
881.0772330292023
 20
1040.364119259801
 30
0.0
 10
901.9124169822452
 20
1040.364119259801
 30
0.0
 10
901.9124169822452
 20
1040.364119259801
 30
0.0
 10
902.0781024071947
 20
1040.364119259801
 30
0.0
 10
902.2124169822447
 20
1040.22980468475
 30
0.0
 10
902.2124169822447
 20
1040.064119259801
 30
0.0
 10
902.2124169822447
 20
1039.898433834851
 30
0.0
 10
902.0781024071947
 20
1039.764119259801
 30
0.0
 10
901.9124169822452
 20
1039.764119259801
 30
0.0
 10
901.9124169822452
 20
1039.764119259801
 30
0.0
 10
881.0772330292023
 20
1039.764119259801
 30
0.0
 10
881.0772330292023
 20
1039.764119259801
 30
0.0
 10
880.6464509243344
 20
1039.764119259801
 30
0.0
 10
880.2972330292023
 20
1039.414901364669
 30
0.0
 10
880.2972330292023
 20
1038.984119259801
 30
0.0
 10
880.2972330292023
 20
1038.553337154933
 30
0.0
 10
880.6464509243344
 20
1038.204119259801
 30
0.0
 10
881.0772330292023
 20
1038.204119259801
 30
0.0
 10
881.0772330292023
 20
1038.204119259801
 30
0.0
 10
896.7124169822449
 20
1038.204119259801
 30
0.0
 10
896.7124169822449
 20
1038.204119259801
 30
0.0
  0
SPLINE
  5
BE
330
70
100
AcDbEntity
  8
O1
 62
    18
420
        0
370
    25
100
AcDbSpline
210
0.0
220
0.0
230
1.0
 70
     8
 71
     3
 72
    65
 73
    61
 74
     0
 42
0.0000000001
 43
0.0000000001
 40
0.0
 40
0.0
 40
0.0
 40
0.0
 40
1.0
 40
1.0
 40
1.0
 40
2.0
 40
2.0
 40
2.0
 40
3.0
 40
3.0
 40
3.0
 40
4.0
 40
4.0
 40
4.0
 40
5.0
 40
5.0
 40
5.0
 40
6.0
 40
6.0
 40
6.0
 40
7.0
 40
7.0
 40
7.0
 40
8.0
 40
8.0
 40
8.0
 40
9.0
 40
9.0
 40
9.0
 40
10.0
 40
10.0
 40
10.0
 40
11.0
 40
11.0
 40
11.0
 40
12.0
 40
12.0
 40
12.0
 40
13.0
 40
13.0
 40
13.0
 40
14.0
 40
14.0
 40
14.0
 40
15.0
 40
15.0
 40
15.0
 40
16.0
 40
16.0
 40
16.0
 40
17.0
 40
17.0
 40
17.0
 40
18.0
 40
18.0
 40
18.0
 40
19.0
 40
19.0
 40
19.0
 40
20.0
 40
20.0
 40
20.0
 40
20.0
 10
478.386235350411
 20
1368.700826290182
 30
0.0
 10
478.386235350411
 20
1368.700826290182
 30
0.0
 10
447.1158674443258
 20
1368.700826290182
 30
0.0
 10
447.1158674443258
 20
1368.700826290182
 30
0.0
 10
446.7844965944276
 20
1368.700826290183
 30
0.0
 10
446.5158674443258
 20
1368.969455440284
 30
0.0
 10
446.5158674443258
 20
1369.300826290183
 30
0.0
 10
446.5158674443258
 20
1369.632197140081
 30
0.0
 10
446.7844965944276
 20
1369.900826290182
 30
0.0
 10
447.1158674443258
 20
1369.900826290182
 30
0.0
 10
447.1158674443258
 20
1369.900826290182
 30
0.0
 10
488.7862353504114
 20
1369.900826290182
 30
0.0
 10
488.7862353504114
 20
1369.900826290182
 30
0.0
 10
489.6477995601476
 20
1369.900826290183
 30
0.0
 10
490.3462353504113
 20
1370.599262080447
 30
0.0
 10
490.3462353504113
 20
1371.460826290183
 30
0.0
 10
490.3462353504113
 20
1372.322390499918
 30
0.0
 10
489.6477995601476
 20
1373.020826290182
 30
0.0
 10
488.7862353504114
 20
1373.020826290182
 30
0.0
 10
488.7862353504114
 20
1373.020826290182
 30
0.0
 10
447.1158674443258
 20
1373.020826290183
 30
0.0
 10
447.1158674443258
 20
1373.020826290183
 30
0.0
 10
445.4740231010725
 20
1373.020826290183
 30
0.0
 10
443.88503644696
 20
1372.440401817907
 30
0.0
 10
442.6297535211864
 20
1371.382140213323
 30
0.0
 10
442.6297535211864
 20
1371.382140213323
 30
0.0
 10
437.8985144505959
 20
1367.393486701269
 30
0.0
 10
437.8985144505959
 20
1367.393486701269
 30
0.0
 10
436.8163739973428
 20
1366.481192214559
 30
0.0
 10
435.4465579162112
 20
1365.980826290183
 30
0.0
 10
434.0311748616825
 20
1365.980826290183
 30
0.0
 10
434.0311748616825
 20
1365.980826290183
 30
0.0
 10
397.1158674443263
 20
1365.980826290183
 30
0.0
 10
397.1158674443263
 20
1365.980826290183
 30
0.0
 10
395.7004843897972
 20
1365.980826290183
 30
0.0
 10
394.3306683086657
 20
1366.481192214559
 30
0.0
 10
393.2485278554122
 20
1367.393486701268
 30
0.0
 10
393.2485278554122
 20
1367.393486701268
 30
0.0
 10
388.5172887848231
 20
1371.382140213323
 30
0.0
 10
388.5172887848231
 20
1371.382140213323
 30
0.0
 10
387.262005859049
 20
1372.440401817906
 30
0.0
 10
385.6730192049363
 20
1373.020826290182
 30
0.0
 10
384.0311748616823
 20
1373.020826290182
 30
0.0
 10
384.0311748616823
 20
1373.020826290182
 30
0.0
 10
365.5735211530044
 20
1373.020826290182
 30
0.0
 10
365.5735211530044
 20
1373.020826290182
 30
0.0
 10
365.5735211530044
 20
1373.020826290182
 30
0.0
 10
347.1158674443268
 20
1373.020826290182
 30
0.0
 10
347.1158674443268
 20
1373.020826290182
 30
0.0
 10
345.4740231010725
 20
1373.020826290182
 30
0.0
 10
343.8850364469601
 20
1372.440401817906
 30
0.0
 10
342.629753521186
 20
1371.382140213323
 30
0.0
 10
342.629753521186
 20
1371.382140213323
 30
0.0
 10
337.8985144505969
 20
1367.393486701268
 30
0.0
 10
337.8985144505969
 20
1367.393486701268
 30
0.0
 10
336.8163739973431
 20
1366.481192214558
 30
0.0
 10
335.4465579162116
 20
1365.980826290182
 30
0.0
 10
334.0311748616825
 20
1365.980826290182
 30
0.0
 10
334.0311748616825
 20
1365.980826290182
 30
0.0
 10
315.5735211530045
 20
1365.980826290182
 30
0.0
 10
315.5735211530045
 20
1365.980826290182
 30
0.0
  0
SPLINE
  5
BF
330
70
100
AcDbEntity
  8
O1
 62
    18
420
        0
370
    25
100
AcDbSpline
210
0.0
220
0.0
230
1.0
 70
     8
 71
     3
 72
    65
 73
    61
 74
     0
 42
0.0000000001
 43
0.0000000001
 40
0.0
 40
0.0
 40
0.0
 40
0.0
 40
1.0
 40
1.0
 40
1.0
 40
2.0
 40
2.0
 40
2.0
 40
3.0
 40
3.0
 40
3.0
 40
4.0
 40
4.0
 40
4.0
 40
5.0
 40
5.0
 40
5.0
 40
6.0
 40
6.0
 40
6.0
 40
7.0
 40
7.0
 40
7.0
 40
8.0
 40
8.0
 40
8.0
 40
9.0
 40
9.0
 40
9.0
 40
10.0
 40
10.0
 40
10.0
 40
11.0
 40
11.0
 40
11.0
 40
12.0
 40
12.0
 40
12.0
 40
13.0
 40
13.0
 40
13.0
 40
14.0
 40
14.0
 40
14.0
 40
15.0
 40
15.0
 40
15.0
 40
16.0
 40
16.0
 40
16.0
 40
17.0
 40
17.0
 40
17.0
 40
18.0
 40
18.0
 40
18.0
 40
19.0
 40
19.0
 40
19.0
 40
20.0
 40
20.0
 40
20.0
 40
20.0
 10
315.5735211530049
 20
1365.020826290182
 30
0.0
 10
315.5735211530049
 20
1365.020826290182
 30
0.0
 10
334.0311748616828
 20
1365.020826290182
 30
0.0
 10
334.0311748616828
 20
1365.020826290182
 30
0.0
 10
335.6730192049364
 20
1365.020826290183
 30
0.0
 10
337.2620058590492
 20
1365.601250762458
 30
0.0
 10
338.5172887848229
 20
1366.659512367042
 30
0.0
 10
338.5172887848229
 20
1366.659512367042
 30
0.0
 10
343.2485278554123
 20
1370.648165879096
 30
0.0
 10
343.2485278554123
 20
1370.648165879096
 30
0.0
 10
344.3306683086658
 20
1371.560460365806
 30
0.0
 10
345.7004843897974
 20
1372.060826290182
 30
0.0
 10
347.1158674443268
 20
1372.060826290182
 30
0.0
 10
347.1158674443268
 20
1372.060826290182
 30
0.0
 10
365.5735211530044
 20
1372.060826290182
 30
0.0
 10
365.5735211530044
 20
1372.060826290182
 30
0.0
 10
365.5735211530044
 20
1372.060826290182
 30
0.0
 10
384.0311748616823
 20
1372.060826290182
 30
0.0
 10
384.0311748616823
 20
1372.060826290182
 30
0.0
 10
385.4465579162114
 20
1372.060826290182
 30
0.0
 10
386.8163739973433
 20
1371.560460365806
 30
0.0
 10
387.8985144505968
 20
1370.648165879096
 30
0.0
 10
387.8985144505968
 20
1370.648165879096
 30
0.0
 10
392.6297535211862
 20
1366.659512367042
 30
0.0
 10
392.6297535211862
 20
1366.659512367042
 30
0.0
 10
393.8850364469603
 20
1365.601250762458
 30
0.0
 10
395.4740231010727
 20
1365.020826290183
 30
0.0
 10
397.1158674443263
 20
1365.020826290183
 30
0.0
 10
397.1158674443263
 20
1365.020826290183
 30
0.0
 10
434.0311748616821
 20
1365.020826290183
 30
0.0
 10
434.0311748616821
 20
1365.020826290183
 30
0.0
 10
435.6730192049361
 20
1365.020826290183
 30
0.0
 10
437.2620058590485
 20
1365.601250762459
 30
0.0
 10
438.5172887848222
 20
1366.659512367042
 30
0.0
 10
438.5172887848222
 20
1366.659512367042
 30
0.0
 10
443.248527855412
 20
1370.648165879096
 30
0.0
 10
443.248527855412
 20
1370.648165879096
 30
0.0
 10
444.3306683086655
 20
1371.560460365806
 30
0.0
 10
445.700484389797
 20
1372.060826290182
 30
0.0
 10
447.1158674443262
 20
1372.060826290182
 30
0.0
 10
447.1158674443262
 20
1372.060826290182
 30
0.0
 10
488.7862353504114
 20
1372.060826290182
 30
0.0
 10
488.7862353504114
 20
1372.060826290182
 30
0.0
 10
489.11760620031
 20
1372.060826290182
 30
0.0
 10
489.3862353504114
 20
1371.792197140081
 30
0.0
 10
489.3862353504114
 20
1371.460826290183
 30
0.0
 10
489.3862353504114
 20
1371.129455440284
 30
0.0
 10
489.11760620031
 20
1370.860826290183
 30
0.0
 10
488.7862353504114
 20
1370.860826290183
 30
0.0
 10
488.7862353504114
 20
1370.860826290183
 30
0.0
 10
447.1158674443258
 20
1370.860826290182
 30
0.0
 10
447.1158674443258
 20
1370.860826290182
 30
0.0
 10
446.2543032345898
 20
1370.860826290182
 30
0.0
 10
445.5558674443259
 20
1370.162390499919
 30
0.0
 10
445.5558674443259
 20
1369.300826290183
 30
0.0
 10
445.5558674443259
 20
1368.439262080447
 30
0.0
 10
446.2543032345898
 20
1367.740826290183
 30
0.0
 10
447.1158674443258
 20
1367.740826290183
 30
0.0
 10
447.1158674443258
 20
1367.740826290183
 30
0.0
 10
478.386235350411
 20
1367.740826290183
 30
0.0
 10
478.386235350411
 20
1367.740826290183
 30
0.0
  0
SPLINE
  5
C0
330
70
100
AcDbEntity
  8
O1
 62
    18
420
        0
370
    25
100
AcDbSpline
210
0.0
220
0.0
230
1.0
 70
     8
 71
     3
 72
    50
 73
    46
 74
     0
 42
0.0000000001
 43
0.0000000001
 40
0.0
 40
0.0
 40
0.0
 40
0.0
 40
1.0
 40
1.0
 40
1.0
 40
2.0
 40
2.0
 40
2.0
 40
3.0
 40
3.0
 40
3.0
 40
4.0
 40
4.0
 40
4.0
 40
5.0
 40
5.0
 40
5.0
 40
6.0
 40
6.0
 40
6.0
 40
7.0
 40
7.0
 40
7.0
 40
8.0
 40
8.0
 40
8.0
 40
9.0
 40
9.0
 40
9.0
 40
10.0
 40
10.0
 40
10.0
 40
11.0
 40
11.0
 40
11.0
 40
12.0
 40
12.0
 40
12.0
 40
13.0
 40
13.0
 40
13.0
 40
14.0
 40
14.0
 40
14.0
 40
15.0
 40
15.0
 40
15.0
 40
15.0
 10
615.5735211530049
 20
1365.980826290184
 30
0.0
 10
615.5735211530049
 20
1365.980826290184
 30
0.0
 10
597.1158674443263
 20
1365.980826290184
 30
0.0
 10
597.1158674443263
 20
1365.980826290184
 30
0.0
 10
595.7004843897972
 20
1365.980826290184
 30
0.0
 10
594.3306683086657
 20
1366.48119221456
 30
0.0
 10
593.2485278554127
 20
1367.39348670127
 30
0.0
 10
593.2485278554127
 20
1367.39348670127
 30
0.0
 10
588.5172887848231
 20
1371.382140213324
 30
0.0
 10
588.5172887848231
 20
1371.382140213324
 30
0.0
 10
587.2620058590496
 20
1372.440401817908
 30
0.0
 10
585.6730192049366
 20
1373.020826290184
 30
0.0
 10
584.0311748616829
 20
1373.020826290184
 30
0.0
 10
584.0311748616829
 20
1373.020826290184
 30
0.0
 10
565.5735211530044
 20
1373.020826290184
 30
0.0
 10
565.5735211530044
 20
1373.020826290184
 30
0.0
 10
565.5735211530044
 20
1373.020826290184
 30
0.0
 10
547.1158674443264
 20
1373.020826290184
 30
0.0
 10
547.1158674443264
 20
1373.020826290184
 30
0.0
 10
545.4740231010722
 20
1373.020826290184
 30
0.0
 10
543.8850364469598
 20
1372.440401817908
 30
0.0
 10
542.6297535211857
 20
1371.382140213325
 30
0.0
 10
542.6297535211857
 20
1371.382140213325
 30
0.0
 10
537.8985144505966
 20
1367.39348670127
 30
0.0
 10
537.8985144505966
 20
1367.39348670127
 30
0.0
 10
536.8163739973431
 20
1366.48119221456
 30
0.0
 10
535.4465579162115
 20
1365.980826290184
 30
0.0
 10
534.0311748616824
 20
1365.980826290184
 30
0.0
 10
534.0311748616824
 20
1365.980826290184
 30
0.0
 10
497.1158674443266
 20
1365.980826290185
 30
0.0
 10
497.1158674443266
 20
1365.980826290185
 30
0.0
 10
495.7004843897975
 20
1365.980826290184
 30
0.0
 10
494.3306683086659
 20
1366.481192214561
 30
0.0
 10
493.2485278554125
 20
1367.393486701271
 30
0.0
 10
493.2485278554125
 20
1367.393486701271
 30
0.0
 10
492.36049415285
 20
1368.142140213322
 30
0.0
 10
492.36049415285
 20
1368.142140213322
 30
0.0
 10
491.1052112270759
 20
1369.200401817906
 30
0.0
 10
489.5162245729628
 20
1369.780826290182
 30
0.0
 10
487.8743802297092
 20
1369.780826290182
 30
0.0
 10
487.8743802297092
 20
1369.780826290182
 30
0.0
 10
465.5735211530047
 20
1369.780826290182
 30
0.0
 10
465.5735211530047
 20
1369.780826290182
 30
0.0
 10
465.5735211530047
 20
1369.780826290182
 30
0.0
 10
449.1158674443268
 20
1369.780826290182
 30
0.0
 10
449.1158674443268
 20
1369.780826290182
 30
0.0
  0
SPLINE
  5
C1
330
70
100
AcDbEntity
  8
O1
 62
    18
420
        0
370
    25
100
AcDbSpline
210
0.0
220
0.0
230
1.0
 70
     8
 71
     3
 72
    50
 73
    46
 74
     0
 42
0.0000000001
 43
0.0000000001
 40
0.0
 40
0.0
 40
0.0
 40
0.0
 40
1.0
 40
1.0
 40
1.0
 40
2.0
 40
2.0
 40
2.0
 40
3.0
 40
3.0
 40
3.0
 40
4.0
 40
4.0
 40
4.0
 40
5.0
 40
5.0
 40
5.0
 40
6.0
 40
6.0
 40
6.0
 40
7.0
 40
7.0
 40
7.0
 40
8.0
 40
8.0
 40
8.0
 40
9.0
 40
9.0
 40
9.0
 40
10.0
 40
10.0
 40
10.0
 40
11.0
 40
11.0
 40
11.0
 40
12.0
 40
12.0
 40
12.0
 40
13.0
 40
13.0
 40
13.0
 40
14.0
 40
14.0
 40
14.0
 40
15.0
 40
15.0
 40
15.0
 40
15.0
 10
449.1158674443268
 20
1368.820826290182
 30
0.0
 10
449.1158674443268
 20
1368.820826290182
 30
0.0
 10
465.5735211530047
 20
1368.820826290182
 30
0.0
 10
465.5735211530047
 20
1368.820826290182
 30
0.0
 10
465.5735211530047
 20
1368.820826290182
 30
0.0
 10
487.8743802297092
 20
1368.820826290182
 30
0.0
 10
487.8743802297092
 20
1368.820826290182
 30
0.0
 10
489.2897632842383
 20
1368.820826290182
 30
0.0
 10
490.6595793653699
 20
1368.320460365806
 30
0.0
 10
491.7417198186234
 20
1367.408165879096
 30
0.0
 10
491.7417198186234
 20
1367.408165879096
 30
0.0
 10
492.6297535211865
 20
1366.659512367045
 30
0.0
 10
492.6297535211865
 20
1366.659512367045
 30
0.0
 10
493.8850364469599
 20
1365.601250762461
 30
0.0
 10
495.474023101073
 20
1365.020826290185
 30
0.0
 10
497.1158674443266
 20
1365.020826290185
 30
0.0
 10
497.1158674443266
 20
1365.020826290185
 30
0.0
 10
534.0311748616831
 20
1365.020826290184
 30
0.0
 10
534.0311748616831
 20
1365.020826290184
 30
0.0
 10
535.6730192049367
 20
1365.020826290184
 30
0.0
 10
537.2620058590491
 20
1365.601250762461
 30
0.0
 10
538.5172887848232
 20
1366.659512367044
 30
0.0
 10
538.5172887848232
 20
1366.659512367044
 30
0.0
 10
543.2485278554123
 20
1370.648165879099
 30
0.0
 10
543.2485278554123
 20
1370.648165879099
 30
0.0
 10
544.3306683086658
 20
1371.560460365808
 30
0.0
 10
545.7004843897967
 20
1372.060826290184
 30
0.0
 10
547.1158674443264
 20
1372.060826290184
 30
0.0
 10
547.1158674443264
 20
1372.060826290184
 30
0.0
 10
565.5735211530044
 20
1372.060826290184
 30
0.0
 10
565.5735211530044
 20
1372.060826290184
 30
0.0
 10
565.5735211530044
 20
1372.060826290184
 30
0.0
 10
584.0311748616829
 20
1372.060826290184
 30
0.0
 10
584.0311748616829
 20
1372.060826290184
 30
0.0
 10
585.4465579162121
 20
1372.060826290184
 30
0.0
 10
586.8163739973436
 20
1371.560460365808
 30
0.0
 10
587.898514450597
 20
1370.648165879098
 30
0.0
 10
587.898514450597
 20
1370.648165879098
 30
0.0
 10
592.6297535211862
 20
1366.659512367044
 30
0.0
 10
592.6297535211862
 20
1366.659512367044
 30
0.0
 10
593.8850364469602
 20
1365.601250762461
 30
0.0
 10
595.4740231010727
 20
1365.020826290184
 30
0.0
 10
597.1158674443263
 20
1365.020826290184
 30
0.0
 10
597.1158674443263
 20
1365.020826290184
 30
0.0
 10
615.5735211530049
 20
1365.020826290184
 30
0.0
 10
615.5735211530049
 20
1365.020826290184
 30
0.0
  0
SPLINE
  5
C2
330
70
100
AcDbEntity
  8
O1
 62
    18
420
        0
370
    25
100
AcDbSpline
210
0.0
220
0.0
230
1.0
 70
     8
 71
     3
 72
    50
 73
    46
 74
     0
 42
0.0000000001
 43
0.0000000001
 40
0.0
 40
0.0
 40
0.0
 40
0.0
 40
1.0
 40
1.0
 40
1.0
 40
2.0
 40
2.0
 40
2.0
 40
3.0
 40
3.0
 40
3.0
 40
4.0
 40
4.0
 40
4.0
 40
5.0
 40
5.0
 40
5.0
 40
6.0
 40
6.0
 40
6.0
 40
7.0
 40
7.0
 40
7.0
 40
8.0
 40
8.0
 40
8.0
 40
9.0
 40
9.0
 40
9.0
 40
10.0
 40
10.0
 40
10.0
 40
11.0
 40
11.0
 40
11.0
 40
12.0
 40
12.0
 40
12.0
 40
13.0
 40
13.0
 40
13.0
 40
14.0
 40
14.0
 40
14.0
 40
15.0
 40
15.0
 40
15.0
 40
15.0
 10
890.573521153005
 20
1365.980826290184
 30
0.0
 10
890.573521153005
 20
1365.980826290184
 30
0.0
 10
872.1158674443264
 20
1365.980826290184
 30
0.0
 10
872.1158674443264
 20
1365.980826290184
 30
0.0
 10
870.7004843897973
 20
1365.980826290184
 30
0.0
 10
869.3306683086657
 20
1366.48119221456
 30
0.0
 10
868.2485278554128
 20
1367.39348670127
 30
0.0
 10
868.2485278554128
 20
1367.39348670127
 30
0.0
 10
863.5172887848231
 20
1371.382140213324
 30
0.0
 10
863.5172887848231
 20
1371.382140213324
 30
0.0
 10
862.262005859049
 20
1372.440401817908
 30
0.0
 10
860.6730192049367
 20
1373.020826290184
 30
0.0
 10
859.031174861683
 20
1373.020826290184
 30
0.0
 10
859.031174861683
 20
1373.020826290184
 30
0.0
 10
840.5735211530044
 20
1373.020826290184
 30
0.0
 10
840.5735211530044
 20
1373.020826290184
 30
0.0
 10
840.5735211530044
 20
1373.020826290184
 30
0.0
 10
822.1158674443266
 20
1373.020826290184
 30
0.0
 10
822.1158674443266
 20
1373.020826290184
 30
0.0
 10
820.4740231010724
 20
1373.020826290184
 30
0.0
 10
818.8850364469599
 20
1372.440401817908
 30
0.0
 10
817.6297535211856
 20
1371.382140213325
 30
0.0
 10
817.6297535211856
 20
1371.382140213325
 30
0.0
 10
812.8985144505968
 20
1367.39348670127
 30
0.0
 10
812.8985144505968
 20
1367.39348670127
 30
0.0
 10
811.8163739973432
 20
1366.48119221456
 30
0.0
 10
810.4465579162116
 20
1365.980826290184
 30
0.0
 10
809.0311748616825
 20
1365.980826290184
 30
0.0
 10
809.0311748616825
 20
1365.980826290184
 30
0.0
 10
772.1158674443268
 20
1365.980826290185
 30
0.0
 10
772.1158674443268
 20
1365.980826290185
 30
0.0
 10
770.7004843897976
 20
1365.980826290184
 30
0.0
 10
769.330668308666
 20
1366.481192214561
 30
0.0
 10
768.2485278554126
 20
1367.393486701271
 30
0.0
 10
768.2485278554126
 20
1367.393486701271
 30
0.0
 10
767.3604941528501
 20
1368.142140213322
 30
0.0
 10
767.3604941528501
 20
1368.142140213322
 30
0.0
 10
766.1052112270759
 20
1369.200401817906
 30
0.0
 10
764.5162245729629
 20
1369.780826290182
 30
0.0
 10
762.8743802297093
 20
1369.780826290182
 30
0.0
 10
762.8743802297093
 20
1369.780826290182
 30
0.0
 10
740.5735211530047
 20
1369.780826290182
 30
0.0
 10
740.5735211530047
 20
1369.780826290182
 30
0.0
 10
740.5735211530047
 20
1369.780826290182
 30
0.0
 10
724.115867444327
 20
1369.780826290182
 30
0.0
 10
724.115867444327
 20
1369.780826290182
 30
0.0
  0
SPLINE
  5
C3
330
70
100
AcDbEntity
  8
O1
 62
    18
420
        0
370
    25
100
AcDbSpline
210
0.0
220
0.0
230
1.0
 70
     8
 71
     3
 72
    50
 73
    46
 74
     0
 42
0.0000000001
 43
0.0000000001
 40
0.0
 40
0.0
 40
0.0
 40
0.0
 40
1.0
 40
1.0
 40
1.0
 40
2.0
 40
2.0
 40
2.0
 40
3.0
 40
3.0
 40
3.0
 40
4.0
 40
4.0
 40
4.0
 40
5.0
 40
5.0
 40
5.0
 40
6.0
 40
6.0
 40
6.0
 40
7.0
 40
7.0
 40
7.0
 40
8.0
 40
8.0
 40
8.0
 40
9.0
 40
9.0
 40
9.0
 40
10.0
 40
10.0
 40
10.0
 40
11.0
 40
11.0
 40
11.0
 40
12.0
 40
12.0
 40
12.0
 40
13.0
 40
13.0
 40
13.0
 40
14.0
 40
14.0
 40
14.0
 40
15.0
 40
15.0
 40
15.0
 40
15.0
 10
724.115867444327
 20
1368.820826290182
 30
0.0
 10
724.115867444327
 20
1368.820826290182
 30
0.0
 10
740.5735211530047
 20
1368.820826290182
 30
0.0
 10
740.5735211530047
 20
1368.820826290182
 30
0.0
 10
740.5735211530047
 20
1368.820826290182
 30
0.0
 10
762.8743802297093
 20
1368.820826290182
 30
0.0
 10
762.8743802297093
 20
1368.820826290182
 30
0.0
 10
764.2897632842384
 20
1368.820826290182
 30
0.0
 10
765.6595793653699
 20
1368.320460365806
 30
0.0
 10
766.7417198186234
 20
1367.408165879096
 30
0.0
 10
766.7417198186234
 20
1367.408165879096
 30
0.0
 10
767.6297535211866
 20
1366.659512367045
 30
0.0
 10
767.6297535211866
 20
1366.659512367045
 30
0.0
 10
768.8850364469607
 20
1365.601250762461
 30
0.0
 10
770.4740231010731
 20
1365.020826290185
 30
0.0
 10
772.1158674443268
 20
1365.020826290185
 30
0.0
 10
772.1158674443268
 20
1365.020826290185
 30
0.0
 10
809.0311748616825
 20
1365.020826290184
 30
0.0
 10
809.0311748616825
 20
1365.020826290184
 30
0.0
 10
810.6730192049369
 20
1365.020826290184
 30
0.0
 10
812.2620058590493
 20
1365.601250762461
 30
0.0
 10
813.5172887848225
 20
1366.659512367044
 30
0.0
 10
813.5172887848225
 20
1366.659512367044
 30
0.0
 10
818.2485278554125
 20
1370.648165879099
 30
0.0
 10
818.2485278554125
 20
1370.648165879099
 30
0.0
 10
819.3306683086658
 20
1371.560460365808
 30
0.0
 10
820.7004843897969
 20
1372.060826290184
 30
0.0
 10
822.1158674443266
 20
1372.060826290184
 30
0.0
 10
822.1158674443266
 20
1372.060826290184
 30
0.0
 10
840.5735211530044
 20
1372.060826290184
 30
0.0
 10
840.5735211530044
 20
1372.060826290184
 30
0.0
 10
840.5735211530044
 20
1372.060826290184
 30
0.0
 10
859.031174861683
 20
1372.060826290184
 30
0.0
 10
859.031174861683
 20
1372.060826290184
 30
0.0
 10
860.4465579162122
 20
1372.060826290184
 30
0.0
 10
861.8163739973438
 20
1371.560460365808
 30
0.0
 10
862.8985144505964
 20
1370.648165879098
 30
0.0
 10
862.8985144505964
 20
1370.648165879098
 30
0.0
 10
867.6297535211864
 20
1366.659512367044
 30
0.0
 10
867.6297535211864
 20
1366.659512367044
 30
0.0
 10
868.8850364469603
 20
1365.601250762461
 30
0.0
 10
870.4740231010728
 20
1365.020826290184
 30
0.0
 10
872.1158674443264
 20
1365.020826290184
 30
0.0
 10
872.1158674443264
 20
1365.020826290184
 30
0.0
 10
890.573521153005
 20
1365.020826290184
 30
0.0
 10
890.573521153005
 20
1365.020826290184
 30
0.0
  0
SPLINE
  5
C4
330
70
100
AcDbEntity
  8
O1
 62
    18
420
        0
370
    25
100
AcDbSpline
210
0.0
220
0.0
230
1.0
 70
     8
 71
     3
 72
    65
 73
    61
 74
     0
 42
0.0000000001
 43
0.0000000001
 40
0.0
 40
0.0
 40
0.0
 40
0.0
 40
1.0
 40
1.0
 40
1.0
 40
2.0
 40
2.0
 40
2.0
 40
3.0
 40
3.0
 40
3.0
 40
4.0
 40
4.0
 40
4.0
 40
5.0
 40
5.0
 40
5.0
 40
6.0
 40
6.0
 40
6.0
 40
7.0
 40
7.0
 40
7.0
 40
8.0
 40
8.0
 40
8.0
 40
9.0
 40
9.0
 40
9.0
 40
10.0
 40
10.0
 40
10.0
 40
11.0
 40
11.0
 40
11.0
 40
12.0
 40
12.0
 40
12.0
 40
13.0
 40
13.0
 40
13.0
 40
14.0
 40
14.0
 40
14.0
 40
15.0
 40
15.0
 40
15.0
 40
16.0
 40
16.0
 40
16.0
 40
17.0
 40
17.0
 40
17.0
 40
18.0
 40
18.0
 40
18.0
 40
19.0
 40
19.0
 40
19.0
 40
20.0
 40
20.0
 40
20.0
 40
20.0
 10
203.386235350411
 20
1368.700826290182
 30
0.0
 10
203.386235350411
 20
1368.700826290182
 30
0.0
 10
172.1158674443257
 20
1368.700826290182
 30
0.0
 10
172.1158674443257
 20
1368.700826290182
 30
0.0
 10
171.7844965944275
 20
1368.700826290183
 30
0.0
 10
171.515867444326
 20
1368.969455440284
 30
0.0
 10
171.515867444326
 20
1369.300826290183
 30
0.0
 10
171.515867444326
 20
1369.632197140081
 30
0.0
 10
171.7844965944275
 20
1369.900826290182
 30
0.0
 10
172.1158674443257
 20
1369.900826290182
 30
0.0
 10
172.1158674443257
 20
1369.900826290182
 30
0.0
 10
213.7862353504113
 20
1369.900826290182
 30
0.0
 10
213.7862353504113
 20
1369.900826290182
 30
0.0
 10
214.6477995601476
 20
1369.900826290183
 30
0.0
 10
215.3462353504115
 20
1370.599262080447
 30
0.0
 10
215.3462353504115
 20
1371.460826290183
 30
0.0
 10
215.3462353504115
 20
1372.322390499918
 30
0.0
 10
214.6477995601476
 20
1373.020826290182
 30
0.0
 10
213.7862353504116
 20
1373.020826290182
 30
0.0
 10
213.7862353504116
 20
1373.020826290182
 30
0.0
 10
172.1158674443257
 20
1373.020826290183
 30
0.0
 10
172.1158674443257
 20
1373.020826290183
 30
0.0
 10
170.4740231010721
 20
1373.020826290183
 30
0.0
 10
168.8850364469597
 20
1372.440401817907
 30
0.0
 10
167.6297535211863
 20
1371.382140213323
 30
0.0
 10
167.6297535211863
 20
1371.382140213323
 30
0.0
 10
162.8985144505959
 20
1367.393486701269
 30
0.0
 10
162.8985144505959
 20
1367.393486701269
 30
0.0
 10
161.8163739973427
 20
1366.481192214559
 30
0.0
 10
160.4465579162111
 20
1365.980826290183
 30
0.0
 10
159.031174861682
 20
1365.980826290183
 30
0.0
 10
159.031174861682
 20
1365.980826290183
 30
0.0
 10
122.1158674443262
 20
1365.980826290183
 30
0.0
 10
122.1158674443262
 20
1365.980826290183
 30
0.0
 10
120.7004843897971
 20
1365.980826290182
 30
0.0
 10
119.3306683086656
 20
1366.481192214558
 30
0.0
 10
118.2485278554121
 20
1367.393486701268
 30
0.0
 10
118.2485278554121
 20
1367.393486701268
 30
0.0
 10
113.517288784823
 20
1371.382140213323
 30
0.0
 10
113.517288784823
 20
1371.382140213323
 30
0.0
 10
112.2620058590492
 20
1372.440401817906
 30
0.0
 10
110.6730192049365
 20
1373.020826290182
 30
0.0
 10
109.0311748616825
 20
1373.020826290182
 30
0.0
 10
109.0311748616825
 20
1373.020826290182
 30
0.0
 10
90.57352115300465
 20
1373.020826290182
 30
0.0
 10
90.57352115300465
 20
1373.020826290182
 30
0.0
 10
90.57352115300465
 20
1373.020826290182
 30
0.0
 10
72.11586744432674
 20
1373.020826290182
 30
0.0
 10
72.11586744432674
 20
1373.020826290182
 30
0.0
 10
70.47402310107246
 20
1373.020826290182
 30
0.0
 10
68.88503644696005
 20
1372.440401817906
 30
0.0
 10
67.62975352118598
 20
1371.382140213323
 30
0.0
 10
67.62975352118598
 20
1371.382140213323
 30
0.0
 10
62.89851445059685
 20
1367.393486701268
 30
0.0
 10
62.89851445059685
 20
1367.393486701268
 30
0.0
 10
61.81637399734336
 20
1366.481192214558
 30
0.0
 10
60.44655791621181
 20
1365.980826290182
 30
0.0
 10
59.0311748616827
 20
1365.980826290182
 30
0.0
 10
59.0311748616827
 20
1365.980826290182
 30
0.0
 10
40.57352115300449
 20
1365.980826290182
 30
0.0
 10
40.57352115300449
 20
1365.980826290182
 30
0.0
  0
SPLINE
  5
C5
330
70
100
AcDbEntity
  8
O1
 62
    18
420
        0
370
    25
100
AcDbSpline
210
0.0
220
0.0
230
1.0
 70
     8
 71
     3
 72
    65
 73
    61
 74
     0
 42
0.0000000001
 43
0.0000000001
 40
0.0
 40
0.0
 40
0.0
 40
0.0
 40
1.0
 40
1.0
 40
1.0
 40
2.0
 40
2.0
 40
2.0
 40
3.0
 40
3.0
 40
3.0
 40
4.0
 40
4.0
 40
4.0
 40
5.0
 40
5.0
 40
5.0
 40
6.0
 40
6.0
 40
6.0
 40
7.0
 40
7.0
 40
7.0
 40
8.0
 40
8.0
 40
8.0
 40
9.0
 40
9.0
 40
9.0
 40
10.0
 40
10.0
 40
10.0
 40
11.0
 40
11.0
 40
11.0
 40
12.0
 40
12.0
 40
12.0
 40
13.0
 40
13.0
 40
13.0
 40
14.0
 40
14.0
 40
14.0
 40
15.0
 40
15.0
 40
15.0
 40
16.0
 40
16.0
 40
16.0
 40
17.0
 40
17.0
 40
17.0
 40
18.0
 40
18.0
 40
18.0
 40
19.0
 40
19.0
 40
19.0
 40
20.0
 40
20.0
 40
20.0
 40
20.0
 10
40.57352115300481
 20
1365.020826290182
 30
0.0
 10
40.57352115300481
 20
1365.020826290182
 30
0.0
 10
59.0311748616827
 20
1365.020826290182
 30
0.0
 10
59.0311748616827
 20
1365.020826290182
 30
0.0
 10
60.67301920493633
 20
1365.020826290183
 30
0.0
 10
62.26200585904908
 20
1365.601250762458
 30
0.0
 10
63.51728878482283
 20
1366.659512367042
 30
0.0
 10
63.51728878482283
 20
1366.659512367042
 30
0.0
 10
68.24852785541228
 20
1370.648165879096
 30
0.0
 10
68.24852785541228
 20
1370.648165879096
 30
0.0
 10
69.33066830866543
 20
1371.560460365806
 30
0.0
 10
70.700484389797
 20
1372.060826290182
 30
0.0
 10
72.11586744432641
 20
1372.060826290182
 30
0.0
 10
72.11586744432641
 20
1372.060826290182
 30
0.0
 10
90.57352115300465
 20
1372.060826290182
 30
0.0
 10
90.57352115300465
 20
1372.060826290182
 30
0.0
 10
90.57352115300465
 20
1372.060826290182
 30
0.0
 10
109.0311748616822
 20
1372.060826290182
 30
0.0
 10
109.0311748616822
 20
1372.060826290182
 30
0.0
 10
110.4465579162116
 20
1372.060826290182
 30
0.0
 10
111.8163739973432
 20
1371.560460365806
 30
0.0
 10
112.8985144505967
 20
1370.648165879096
 30
0.0
 10
112.8985144505967
 20
1370.648165879096
 30
0.0
 10
117.6297535211861
 20
1366.659512367042
 30
0.0
 10
117.6297535211861
 20
1366.659512367042
 30
0.0
 10
118.8850364469599
 20
1365.601250762458
 30
0.0
 10
120.4740231010726
 20
1365.020826290183
 30
0.0
 10
122.1158674443262
 20
1365.020826290183
 30
0.0
 10
122.1158674443262
 20
1365.020826290183
 30
0.0
 10
159.0311748616824
 20
1365.020826290183
 30
0.0
 10
159.0311748616824
 20
1365.020826290183
 30
0.0
 10
160.673019204936
 20
1365.020826290183
 30
0.0
 10
162.2620058590487
 20
1365.601250762459
 30
0.0
 10
163.5172887848225
 20
1366.659512367043
 30
0.0
 10
163.5172887848225
 20
1366.659512367043
 30
0.0
 10
168.2485278554123
 20
1370.648165879096
 30
0.0
 10
168.2485278554123
 20
1370.648165879096
 30
0.0
 10
169.3306683086654
 20
1371.560460365806
 30
0.0
 10
170.700484389797
 20
1372.060826290182
 30
0.0
 10
172.1158674443261
 20
1372.060826290182
 30
0.0
 10
172.1158674443261
 20
1372.060826290182
 30
0.0
 10
213.7862353504113
 20
1372.060826290182
 30
0.0
 10
213.7862353504113
 20
1372.060826290182
 30
0.0
 10
214.1176062003099
 20
1372.060826290182
 30
0.0
 10
214.3862353504113
 20
1371.792197140081
 30
0.0
 10
214.3862353504113
 20
1371.460826290183
 30
0.0
 10
214.3862353504113
 20
1371.129455440284
 30
0.0
 10
214.1176062003099
 20
1370.860826290183
 30
0.0
 10
213.7862353504116
 20
1370.860826290183
 30
0.0
 10
213.7862353504116
 20
1370.860826290183
 30
0.0
 10
172.1158674443257
 20
1370.860826290182
 30
0.0
 10
172.1158674443257
 20
1370.860826290182
 30
0.0
 10
171.2543032345898
 20
1370.860826290182
 30
0.0
 10
170.5558674443258
 20
1370.162390499919
 30
0.0
 10
170.5558674443258
 20
1369.300826290183
 30
0.0
 10
170.5558674443258
 20
1368.439262080447
 30
0.0
 10
171.2543032345898
 20
1367.740826290183
 30
0.0
 10
172.1158674443257
 20
1367.740826290183
 30
0.0
 10
172.1158674443257
 20
1367.740826290183
 30
0.0
 10
203.386235350411
 20
1367.740826290183
 30
0.0
 10
203.386235350411
 20
1367.740826290183
 30
0.0
  0
LINE
  5
C6
330
70
100
AcDbEntity
  8
O1
 62
    18
420
        0
370
    25
100
AcDbLine
 10
724.115867444327
 20
1369.780826290182
 30
0.0
 11
724.115867444327
 21
1368.820826290182
 31
0.0
  0
LINE
  5
C7
330
70
100
AcDbEntity
  8
O1
 62
    18
420
        0
370
    25
100
AcDbLine
 10
449.1158674443268
 20
1369.780826290182
 30
0.0
 11
449.1158674443268
 21
1368.820826290182
 31
0.0
  0
LINE
  5
C8
330
70
100
AcDbEntity
  8
O1
 62
    18
420
        0
370
    25
100
AcDbLine
 10
478.386235350411
 20
1367.740826290183
 30
0.0
 11
478.386235350411
 21
1368.700826290182
 31
0.0
  0
LINE
  5
C9
330
70
100
AcDbEntity
  8
O1
 62
    18
420
        0
370
    25
100
AcDbLine
 10
203.386235350411
 20
1368.700826290182
 30
0.0
 11
203.386235350411
 21
1367.740826290183
 31
0.0
  0
LWPOLYLINE
  5
CB
330
70
100
AcDbEntity
  8
B1
 62
     4
420
    65535
370
    25
100
AcDbPolyline
 90
        4
 70
     1
 43
0.0
 10
-26.28888900512932
 20
805.1472219365603
 10
956.2111109948704
 20
805.1472219365603
 10
956.2111109948709
 20
1480.14722193656
 10
-26.288889005129
 20
1480.14722193656
  0
LINE
  5
CC
330
70
100
AcDbEntity
  8
B1
 62
    18
420
        0
370
    25
100
AcDbLine
 10
956.2111109948704
 20
861.3972219365606
 30
0.0
 11
874.6486109948705
 21
861.3972219365606
 31
0.0
  0
LINE
  5
CD
330
70
100
AcDbEntity
  8
B1
 62
    18
420
        0
370
    25
100
AcDbLine
 10
956.2111109948704
 20
875.4597219365605
 30
0.0
 11
874.6486109948705
 21
875.4597219365605
 31
0.0
  0
LINE
  5
CE
330
70
100
AcDbEntity
  8
B1
 62
    18
420
        0
370
    25
100
AcDbLine
 10
909.3361109948704
 20
833.2722219365605
 30
0.0
 11
909.3361109948704
 21
889.5222219365606
 31
0.0
  0
LINE
  5
CF
330
70
100
AcDbEntity
  8
B1
 62
    18
420
        0
370
    25
100
AcDbLine
 10
822.1486109948708
 20
847.3347219365608
 30
0.0
 11
822.1486109948703
 21
889.5222219365606
 31
0.0
  0
LINE
  5
D0
330
70
100
AcDbEntity
  8
B1
 62
    18
420
        0
370
    25
100
AcDbLine
 10
822.1486109948703
 20
866.0847219365606
 30
0.0
 11
709.6486109948705
 21
866.0847219365606
 31
0.0
  0
LINE
  5
D1
330
70
100
AcDbEntity
  8
B1
 62
    18
420
        0
370
    25
100
AcDbLine
 10
822.1486109948708
 20
875.4597219365605
 30
0.0
 11
709.6486109948705
 21
875.4597219365605
 31
0.0
  0
CIRCLE
  5
D2
330
70
100
AcDbEntity
  8
B1
 62
    18
420
        0
370
    25
100
AcDbCircle
 10
838.4529615379509
 20
875.4597219365605
 30
0.0
 40
7.536521565242963
  0
CIRCLE
  5
D3
330
70
100
AcDbEntity
  8
B1
 62
    18
420
        0
370
    25
100
AcDbCircle
 10
838.4529615379509
 20
875.4597219365606
 30
0.0
 40
2.826195586966182
  0
LINE
  5
D4
330
70
100
AcDbEntity
  8
B1
 62
    18
420
        0
370
    25
100
AcDbLine
 10
863.8887218206457
 20
882.9962435018037
 30
0.0
 11
863.8887218206457
 21
867.9232003713176
 31
0.0
  0
LINE
  5
D5
330
70
100
AcDbEntity
  8
B1
 62
    18
420
        0
370
    25
100
AcDbLine
 10
853.5260046684369
 20
878.285917523527
 30
0.0
 11
853.5260046684369
 21
872.6335263495951
 31
0.0
  0
LINE
  5
D6
330
70
100
AcDbEntity
  8
B1
 62
    18
420
        0
370
    25
100
AcDbLine
 10
863.8887218206457
 20
882.9962435018037
 30
0.0
 11
853.5260046684369
 21
878.285917523527
 31
0.0
  0
LINE
  5
D7
330
70
100
AcDbEntity
  8
B1
 62
    18
420
        0
370
    25
100
AcDbLine
 10
863.8887218206457
 20
867.9232003713176
 30
0.0
 11
853.5260046684369
 21
872.6335263495951
 31
0.0
  0
LINE
  5
D8
330
70
100
AcDbEntity
  8
B1
 62
    18
420
        0
370
    25
100
AcDbLine
 10
737.7736109948705
 20
847.3347219365608
 30
0.0
 11
737.7736109948705
 21
866.0847219365606
 31
0.0
  0
LINE
  5
D9
330
70
100
AcDbEntity
  8
B1
 62
    18
420
        0
370
    25
100
AcDbLine
 10
765.8986109948706
 20
847.3347219365608
 30
0.0
 11
765.8986109948706
 21
866.0847219365606
 31
0.0
  0
LINE
  5
DA
330
70
100
AcDbEntity
  8
B1
 62
    18
420
        0
370
    25
100
AcDbLine
 10
794.0236109948707
 20
847.3347219365608
 30
0.0
 11
794.0236109948707
 21
866.0847219365606
 31
0.0
  0
MTEXT
  5
DB
330
70
100
AcDbEntity
  8
B1
100
AcDbMText
 10
878.0197053197746
 20
827.1346114739889
 30
0.0
 40
0.2
 41
0.0
 46
0.0
 71
     7
 72
     1
  1
\C18;\c0;\FMyriad Pro|b0|i0|c1;\H3.750000;\W1.000000;DWG NO.
 73
     1
 44
1.0
  0
MTEXT
  5
DC
330
70
100
AcDbEntity
  8
B1
100
AcDbMText
 10
878.0197053197746
 20
838.4284957485093
 30
0.0
 40
0.2
 41
0.0
 46
0.0
 71
     7
 72
     1
  1
\C18;\c0;\FMyriad Pro|b0|i0|c1;\H3.750000;\W1.000000;DATE
 73
     1
 44
1.0
  0
MTEXT
  5
DD
330
70
100
AcDbEntity
  8
B1
100
AcDbMText
 10
878.0197053197746
 20
852.4909448823635
 30
0.0
 40
0.2
 41
0.0
 46
0.0
 71
     7
 72
     1
  1
\C18;\c0;\FMyriad Pro|b0|i0|c1;\H3.750000;\W1.000000;DRAWN
 73
     1
 44
1.0
  0
MTEXT
  5
DE
330
70
100
AcDbEntity
  8
B1
100
AcDbMText
 10
878.0197053197746
 20
866.5534801436047
 30
0.0
 40
0.2
 41
0.0
 46
0.0
 71
     7
 72
     1
  1
\C18;\c0;\FMyriad Pro|b0|i0|c1;\H3.750000;\W1.000000;SCALE
 73
     1
 44
1.0
  0
MTEXT
  5
DF
330
70
100
AcDbEntity
  8
B1
100
AcDbMText
 10
878.0197053197746
 20
880.6159292774589
 30
0.0
 40
0.2
 41
0.0
 46
0.0
 71
     7
 72
     1
  1
\C18;\c0;\FMyriad Pro|b0|i0|c1;\H3.750000;\W1.000000;JOB NO.
 73
     1
 44
1.0
  0
MTEXT
  5
E0
330
70
100
AcDbEntity
  8
B1
100
AcDbMText
 10
713.1582782234032
 20
880.6067997744229
 30
0.0
 40
0.2
 41
0.0
 46
0.0
 71
     7
 72
     1
  1
\C18;\c0;\FMyriad Pro|b0|i0|c1;\H3.768261;\W1.000000;DIMENSIONS IN mm
 73
     1
 44
1.0
  0
MTEXT
  5
E1
330
70
100
AcDbEntity
  8
B1
100
AcDbMText
 10
712.2162168629615
 20
868.8880490991843
 30
0.0
 40
0.2
 41
0.0
 46
0.0
 71
     7
 72
     1
  1
\C18;\c0;\FMyriad Pro|b0|i0|c1;\H3.768261;\W1.000000;TOLERANCES UNLESS STATED
 73
     1
 44
1.0
  0
MTEXT
  5
E2
330
70
100
AcDbEntity
  8
B1
100
AcDbMText
 10
716.9147672768261
 20
859.7869681010255
 30
0.0
 40
0.2
 41
0.0
 46
0.0
 71
     7
 72
     1
  1
\C18;\c0;\FMyriad Pro|b0|i0|c1;\H2.826195;\W1.000000;COVER
 73
     1
 44
1.0
  0
MTEXT
  5
E3
330
70
100
AcDbEntity
  8
B1
100
AcDbMText
 10
745.9145906067071
 20
859.7869681010255
 30
0.0
 40
0.2
 41
0.0
 46
0.0
 71
     7
 72
     1
  1
\C18;\c0;\FMyriad Pro|b0|i0|c1;\H2.826195;\W1.000000;PITCH
 73
     1
 44
1.0
  0
MTEXT
  5
E4
330
70
100
AcDbEntity
  8
B1
100
AcDbMText
 10
772.4918658550541
 20
859.7869681010255
 30
0.0
 40
0.2
 41
0.0
 46
0.0
 71
     7
 72
     1
  1
\C18;\c0;\FMyriad Pro|b0|i0|c1;\H2.826195;\W1.000000;HEIGHT
 73
     1
 44
1.0
  0
MTEXT
  5
E5
330
70
100
AcDbEntity
  8
B1
100
AcDbMText
 10
801.6262632273278
 20
859.7869681010255
 30
0.0
 40
0.2
 41
0.0
 46
0.0
 71
     7
 72
     1
  1
\C18;\c0;\FMyriad Pro|b0|i0|c1;\H2.826195;\W1.000000;ANGLE
 73
     1
 44
1.0
  0
LINE
  5
E6
330
70
100
AcDbEntity
  8
B1
 62
    18
420
        0
370
    25
100
AcDbLine
 10
709.6486109948705
 20
866.0847219365606
 30
0.0
 11
588.7111109948705
 21
866.0847219365606
 31
0.0
  0
MTEXT
  5
E7
330
70
100
AcDbEntity
  8
B1
100
AcDbMText
 10
714.9185066978979
 20
852.2504772174929
 30
0.0
 40
0.2
 41
0.0
 46
0.0
 71
     7
 72
     1
  1
\C18;\c0;\FMyriad Pro|b0|i0|c1;\H3.768261;\W1.000000;± 2.5
 73
     1
 44
1.0
  0
MTEXT
  5
E8
330
70
100
AcDbEntity
  8
B1
100
AcDbMText
 10
743.043534156687
 20
852.2504772174929
 30
0.0
 40
0.2
 41
0.0
 46
0.0
 71
     7
 72
     1
  1
\C18;\c0;\FMyriad Pro|b0|i0|c1;\H3.768261;\W1.000000;± 1.5
 73
     1
 44
1.0
  0
MTEXT
  5
E9
330
70
100
AcDbEntity
  8
B1
100
AcDbMText
 10
771.1685185517825
 20
852.2504772174929
 30
0.0
 40
0.2
 41
0.0
 46
0.0
 71
     7
 72
     1
  1
\C18;\c0;\FMyriad Pro|b0|i0|c1;\H3.768261;\W1.000000;± 1.0
 73
     1
 44
1.0
  0
MTEXT
  5
EA
330
70
100
AcDbEntity
  8
B1
100
AcDbMText
 10
798.5757173025263
 20
852.2504772174929
 30
0.0
 40
0.2
 41
0.0
 46
0.0
 71
     7
 72
     1
  1
\C18;\c0;\FMyriad Pro|b0|i0|c1;\H3.768261;\W1.000000;± 1.5°
 73
     1
 44
1.0
  0
MTEXT
  5
EB
330
70
100
AcDbEntity
  8
B1
100
AcDbMText
 10
832.1591971118387
 20
853.1925385779345
 30
0.0
 40
0.2
 41
0.0
 46
0.0
 71
     7
 72
     1
  1
\C18;\c0;\FMyriad Pro|b0|i0|c1;\H3.768261;\W1.000000;3RD ANGLE
 73
     1
 44
1.0
  0
MTEXT
  5
EC
330
70
100
AcDbEntity
  8
B1
100
AcDbMText
 10
710.6356931817161
 20
839.2628117476496
 30
0.0
 40
0.2
 41
0.0
 46
0.0
 71
     7
 72
     1
  1
\C18;\c0;\FMyriad Pro|b0|i0|c1;\H4.687500;\W1.000000;Title
 73
     1
 44
1.0
  0
LWPOLYLINE
  5
ED
330
70
100
AcDbEntity
  8
B1
 62
    18
420
        0
370
    25
100
AcDbPolyline
 90
       10
 70
     1
 43
0.0
 10
613.8752663309426
 20
847.9710388054565
 10
605.0975874138444
 20
847.9710388054565
 10
607.2525160007002
 20
856.0133417782862
 10
600.8155514614949
 20
856.0133417782862
 10
593.2082297333431
 20
827.6224305793007
 10
599.6451942725484
 20
827.6224305793007
 10
603.5830337634845
 20
842.3186476315244
 10
605.9237481413768
 20
842.3186476315244
 10
601.9859086504415
 20
827.6224305793007
 10
608.4228731896466
 20
827.6224305793007
  0
LWPOLYLINE
  5
EE
330
70
100
AcDbEntity
  8
B1
 62
    18
420
        0
370
    25
100
AcDbPolyline
 90
        8
 70
     1
 43
0.0
 10
611.348766162013
 20
827.6224305793007
 10
614.6807841928044
 20
840.0576911619513
 10
622.2881059209562
 20
840.0576911619513
 10
622.8939273811002
 20
842.3186476315244
 10
615.2866056529485
 20
842.3186476315244
 10
616.8011593033083
 20
847.9710388054565
 10
632.0158027596119
 20
847.9710388054565
 10
626.5634096183166
 20
827.6224305793007
  0
LWPOLYLINE
  5
EF
330
70
100
AcDbEntity
  8
B1
 62
    18
420
        0
370
    25
100
AcDbPolyline
 90
        4
 70
     1
 43
0.0
 10
620.6220969055602
 20
833.8400608706256
 10
618.2813825276678
 20
833.8400608706262
 10
618.8872039878118
 20
836.1010173401988
 10
621.2279183657042
 20
836.1010173401988
  0
LWPOLYLINE
  5
F0
330
70
100
AcDbEntity
  8
B1
 62
    18
420
        0
370
    25
100
AcDbPolyline
 90
       10
 70
     1
 43
0.0
 10
643.7193746490764
 20
847.9710388054565
 10
639.781535158141
 20
833.2748217532328
 10
637.440820780248
 20
833.2748217532328
 10
641.3786602711834
 20
847.9710388054565
 10
634.9416957319782
 20
847.9710388054565
 10
629.4893025906828
 20
827.6224305793007
 10
638.2669815077805
 20
827.6224305793007
 10
635.843695667205
 20
818.578604701009
 10
642.2806602064102
 20
818.578604701009
 10
650.1563391882817
 20
847.9710388054565
  0
LWPOLYLINE
  5
F1
330
70
100
AcDbEntity
  8
B1
 62
    18
420
        0
370
    25
100
AcDbPolyline
 90
        8
 70
     1
 43
0.0
 10
656.1871786690613
 20
835.5357782228058
 10
655.5813572089172
 20
833.2748217532333
 10
664.3590361260155
 20
833.2748217532328
 10
662.8444824756557
 20
827.6224305793007
 10
647.6298390193521
 20
827.6224305793007
 10
653.0822321606481
 20
847.9710388054565
 10
668.296875616951
 20
847.9710388054565
 10
664.964857586159
 20
835.5357782228058
  0
LWPOLYLINE
  5
F2
330
70
100
AcDbEntity
  8
B1
 62
    18
420
        0
370
    25
100
AcDbPolyline
 90
        4
 70
     1
 43
0.0
 10
658.0046430494928
 20
842.3186476315244
 10
657.3988215893487
 20
840.0576911619513
 10
659.7395359672425
 20
840.0576911619513
 10
660.3453574273859
 20
842.3186476315244
  0
LWPOLYLINE
  5
F3
330
70
100
AcDbEntity
  8
B1
 62
    18
420
        0
370
    25
100
AcDbPolyline
 90
       12
 70
     1
 43
0.0
 10
676.7097152069652
 20
840.0576911619513
 10
684.317036935117
 20
840.0576911619513
 10
680.985018904325
 20
827.6224305793007
 10
665.7703754480214
 20
827.6224305793007
 10
667.2849290983819
 20
833.2748217532333
 10
674.8922508265329
 20
833.2748217532328
 10
675.4980722866776
 20
835.5357782228058
 10
667.8907505585252
 20
835.5357782228058
 10
671.2227685893172
 20
847.9710388054565
 10
686.4374120456209
 20
847.9710388054565
 10
684.922858395261
 20
842.3186476315244
 10
677.3155366671093
 20
842.3186476315244
  0
LINE
  5
F4
330
70
100
AcDbEntity
  8
B1
 62
    18
420
        0
370
    25
100
AcDbLine
 10
874.6486109948705
 20
847.3347219365608
 30
0.0
 11
956.2111109948704
 21
847.3347219365608
 31
0.0
  0
LINE
  5
F5
330
70
100
AcDbEntity
  8
B1
 62
     4
420
    65535
370
    25
100
AcDbLine
 10
956.2111109948704
 20
889.5222219365606
 30
0.0
 11
588.7111109948699
 21
889.5222219365606
 31
0.0
  0
LINE
  5
F6
330
70
100
AcDbEntity
  8
B1
 62
     4
420
    65535
370
    25
100
AcDbLine
 10
588.7111109948705
 20
805.1472219365603
 30
0.0
 11
588.7111109948705
 21
889.5222219365606
 31
0.0
  0
LINE
  5
F7
330
70
100
AcDbEntity
  8
B1
 62
     4
420
    65535
370
    25
100
AcDbLine
 10
874.6486109948705
 20
847.3347219365608
 30
0.0
 11
709.6486109948705
 21
847.3347219365608
 31
0.0
  0
LINE
  5
F8
330
70
100
AcDbEntity
  8
B1
 62
     4
420
    65535
370
    25
100
AcDbLine
 10
874.6486109948705
 20
805.1472219365603
 30
0.0
 11
874.6486109948698
 21
889.5222219365606
 31
0.0
  0
LINE
  5
F9
330
70
100
AcDbEntity
  8
B1
 62
     4
420
    65535
370
    25
100
AcDbLine
 10
709.6486109948705
 20
805.1472219365603
 30
0.0
 11
709.6486109948705
 21
889.5222219365606
 31
0.0
  0
LINE
  5
FA
330
70
100
AcDbEntity
  8
B1
 62
     4
420
    65535
370
    25
100
AcDbLine
 10
956.2111109948704
 20
833.2722219365605
 30
0.0
 11
874.6486109948705
 21
833.2722219365605
 31
0.0
  0
LINE
  5
FB
330
70
100
AcDbEntity
  8
B1
 62
     4
420
    65535
370
    25
100
AcDbLine
 10
588.7111109948705
 20
805.1472219365603
 30
0.0
 11
956.2111109948704
 21
805.1472219365603
 31
0.0
  0
LINE
  5
FC
330
70
100
AcDbEntity
  8
B1
 62
     4
420
    65535
370
    25
100
AcDbLine
 10
956.2111109948704
 20
805.1472219365603
 30
0.0
 11
956.2111109948704
 21
889.5222219365606
 31
0.0
  0
INSERT
  5
FE
330
70
100
AcDbEntity
  8
B1
100
AcDbBlockReference
  2
Block_3
 10
0.0
 20
0.0
 30
0.0
  0
INSERT
  5
106
330
70
100
AcDbEntity
  8
B1
100
AcDbBlockReference
  2
Block_4
 10
0.0
 20
0.0
 30
0.0
  0
INSERT
  5
10A
330
70
100
AcDbEntity
  8
B1
100
AcDbBlockReference
  2
Block_5
 10
0.0
 20
0.0
 30
0.0
  0
INSERT
  5
10E
330
70
100
AcDbEntity
  8
B1
100
AcDbBlockReference
  2
Block_6
 10
0.0
 20
0.0
 30
0.0
  0
INSERT
  5
112
330
70
100
AcDbEntity
  8
B1
100
AcDbBlockReference
  2
Block_7
 10
0.0
 20
0.0
 30
0.0
  0
INSERT
  5
116
330
70
100
AcDbEntity
  8
B1
100
AcDbBlockReference
  2
Block_8
 10
0.0
 20
0.0
 30
0.0
  0
INSERT
  5
11A
330
70
100
AcDbEntity
  8
B1
100
AcDbBlockReference
  2
Block_9
 10
0.0
 20
0.0
 30
0.0
  0
INSERT
  5
11E
330
70
100
AcDbEntity
  8
B1
100
AcDbBlockReference
  2
Block_10
 10
0.0
 20
0.0
 30
0.0
  0
MTEXT
  5
121
330
70
100
AcDbEntity
  8
B1
100
AcDbMText
 10
646.0418323173307
 20
819.9842296669658
 30
0.0
 40
0.2
 41
0.0
 46
0.0
 71
     7
 72
     1
  1
\C18;\c0;\FMyriad Pro|b0|i0|c1;\H5.652391;\W1.000000;INTERNATIONAL
 73
     1
 44
1.0
  0
LINE
  5
123
330
70
100
AcDbEntity
  8
C1
  6
AI-Linetype-0
 62
     3
420
    65280
370
    25
100
AcDbLine
 10
836.5688311466403
 20
875.4597219365605
 30
0.0
 11
840.3370919292616
 21
875.4597219365605
 31
0.0
  0
LINE
  5
125
330
70
100
AcDbEntity
  8
C1
  6
AI-Linetype-1
 62
     3
420
    65280
370
    25
100
AcDbLine
 10
838.4529615379509
 20
873.5755915452497
 30
0.0
 11
838.4529615379509
 21
877.3438523278711
 31
0.0
  0
LINE
  5
127
330
70
100
AcDbEntity
  8
C1
  6
AI-Linetype-2
 62
     3
420
    65280
370
    25
100
AcDbLine
 10
834.6847007553295
 20
875.4597219365605
 30
0.0
 11
829.0323095813974
 21
875.4597219365605
 31
0.0
  0
LINE
  5
129
330
70
100
AcDbEntity
  8
C1
  6
AI-Linetype-3
 62
     3
420
    65280
370
    25
100
AcDbLine
 10
842.2212223205722
 20
875.4597219365605
 30
0.0
 11
847.8736134945043
 21
875.4597219365605
 31
0.0
  0
LINE
  5
12B
330
70
100
AcDbEntity
  8
C1
  6
AI-Linetype-4
 62
     3
420
    65280
370
    25
100
AcDbLine
 10
838.4529615379509
 20
871.691461153939
 30
0.0
 11
838.4529615379509
 21
866.0390699800069
 31
0.0
  0
LINE
  5
12D
330
70
100
AcDbEntity
  8
C1
  6
AI-Linetype-5
 62
     3
420
    65280
370
    25
100
AcDbLine
 10
838.4529615379509
 20
879.2279827191823
 30
0.0
 11
838.4529615379509
 21
884.8803738931144
 31
0.0
  0
INSERT
  5
131
330
70
100
AcDbEntity
  8
D1
100
AcDbBlockReference
  2
Block_11
 10
0.0
 20
0.0
 30
0.0
  0
INSERT
  5
13D
330
70
100
AcDbEntity
  8
D1
100
AcDbBlockReference
  2
Block_12
 10
0.0
 20
0.0
 30
0.0
  0
INSERT
  5
14A
330
70
100
AcDbEntity
  8
D1
100
AcDbBlockReference
  2
Block_13
 10
0.0
 20
0.0
 30
0.0
  0
INSERT
  5
156
330
70
100
AcDbEntity
  8
D1
100
AcDbBlockReference
  2
Block_14
 10
0.0
 20
0.0
 30
0.0
  0
INSERT
  5
162
330
70
100
AcDbEntity
  8
D1
100
AcDbBlockReference
  2
Block_15
 10
0.0
 20
0.0
 30
0.0
  0
INSERT
  5
171
330
70
100
AcDbEntity
  8
D1
100
AcDbBlockReference
  2
Block_16
 10
0.0
 20
0.0
 30
0.0
  0
INSERT
  5
17D
330
70
100
AcDbEntity
  8
D1
100
AcDbBlockReference
  2
Block_17
 10
0.0
 20
0.0
 30
0.0
  0
INSERT
  5
18A
330
70
100
AcDbEntity
  8
D1
100
AcDbBlockReference
  2
Block_18
 10
0.0
 20
0.0
 30
0.0
  0
INSERT
  5
196
330
70
100
AcDbEntity
  8
D1
100
AcDbBlockReference
  2
Block_19
 10
0.0
 20
0.0
 30
0.0
  0
INSERT
  5
1A2
330
70
100
AcDbEntity
  8
D1
100
AcDbBlockReference
  2
Block_20
 10
0.0
 20
0.0
 30
0.0
  0
INSERT
  5
1AF
330
70
100
AcDbEntity
  8
D1
100
AcDbBlockReference
  2
Block_21
 10
0.0
 20
0.0
 30
0.0
  0
INSERT
  5
1BC
330
70
100
AcDbEntity
  8
D1
100
AcDbBlockReference
  2
Block_22
 10
0.0
 20
0.0
 30
0.0
  0
ENDSEC
  0
SECTION
  2
OBJECTS
  0
DICTIONARY
  5
C
330
0
100
AcDbDictionary
281
     1
  3
ACAD_COLOR
350
63
  3
ACAD_DETAILVIEWSTYLE
350
6A
  3
ACAD_GROUP
350
D
  3
ACAD_LAYOUT
350
62
  3
ACAD_MATERIAL
350
10
  3
ACAD_MLEADERSTYLE
350
66
  3
ACAD_MLINESTYLE
350
5F
  3
ACAD_PLOTSETTINGS
350
61
  3
ACAD_PLOTSTYLENAME
350
E
  3
ACAD_SCALELIST
350
42
  3
ACAD_SECTIONVIEWSTYLE
350
68
  3
ACAD_TABLESTYLE
350
64
  3
ACAD_VISUALSTYLE
350
29
  3
ACDB_RECOMPOSE_DATA
350
1CB
  3
AcDbVariableDictionary
350
1C3
  0
DICTIONARY
  5
63
102
{ACAD_REACTORS
330
C
102
}
330
C
100
AcDbDictionary
281
     1
  0
DICTIONARY
  5
6A
102
{ACAD_REACTORS
330
C
102
}
330
C
100
AcDbDictionary
281
     1
  3
Imperial24
350
6B
  0
DICTIONARY
  5
D
102
{ACAD_REACTORS
330
C
102
}
330
C
100
AcDbDictionary
281
     1
  0
DICTIONARY
  5
62
102
{ACAD_REACTORS
330
C
102
}
330
C
100
AcDbDictionary
281
     1
  3
Layout1
350
6F
  3
Layout2
350
77
  3
Model
350
73
  0
DICTIONARY
  5
10
102
{ACAD_REACTORS
330
C
102
}
330
C
100
AcDbDictionary
281
     1
  3
ByBlock
350
19
  3
ByLayer
350
11
  3
Global
350
21
  0
DICTIONARY
  5
66
102
{ACAD_REACTORS
330
C
102
}
330
C
100
AcDbDictionary
281
     1
  3
Standard
350
67
  0
DICTIONARY
  5
5F
102
{ACAD_REACTORS
330
C
102
}
330
C
100
AcDbDictionary
281
     1
  3
Standard
350
60
  0
DICTIONARY
  5
61
102
{ACAD_REACTORS
330
C
102
}
330
C
100
AcDbDictionary
281
     1
  0
ACDBDICTIONARYWDFLT
  5
E
102
{ACAD_REACTORS
330
C
102
}
330
C
100
AcDbDictionary
281
     1
  3
Normal
350
F
100
AcDbDictionaryWithDefault
340
F
  0
DICTIONARY
  5
42
102
{ACAD_REACTORS
330
C
102
}
330
C
100
AcDbDictionary
281
     1
  3
A0
350
43
  3
A1
350
44
  3
A2
350
45
  3
A3
350
46
  3
A4
350
47
  3
A5
350
48
  3
A6
350
49
  3
A7
350
4A
  3
A8
350
4B
  3
A9
350
4C
  3
B0
350
4D
  3
B1
350
4E
  3
B2
350
4F
  3
B3
350
50
  3
B4
350
51
  3
B5
350
52
  3
B6
350
53
  0
DICTIONARY
  5
68
102
{ACAD_REACTORS
330
C
102
}
330
C
100
AcDbDictionary
281
     1
  3
Imperial24
350
69
  0
DICTIONARY
  5
64
102
{ACAD_REACTORS
330
C
102
}
330
C
100
AcDbDictionary
281
     1
  3
Standard
350
65
  0
DICTIONARY
  5
29
102
{ACAD_REACTORS
330
C
102
}
330
C
100
AcDbDictionary
281
     1
  3
2dWireframe
350
2F
  3
Basic
350
2E
  3
Brighten
350
35
  3
ColorChange
350
39
  3
Conceptual
350
32
  3
Dim
350
34
  3
EdgeColorOff
350
41
  3
Facepattern
350
38
  3
Flat
350
2A
  3
FlatWithEdges
350
2B
  3
Gouraud
350
2C
  3
GouraudWithEdges
350
2D
  3
Hidden
350
31
  3
JitterOff
350
3F
  3
Linepattern
350
37
  3
OverhangOff
350
40
  3
Realistic
350
33
  3
Shaded
350
3E
  3
Shaded with edges
350
3D
  3
Shades of Gray
350
3A
  3
Sketchy
350
3B
  3
Thicken
350
36
  3
Wireframe
350
30
  3
X-Ray
350
3C
  0
XRECORD
  5
1CB
102
{ACAD_REACTORS
330
C
102
}
330
C
100
AcDbXrecord
280
     1
 90
        1
330
65
  0
DICTIONARY
  5
1C3
102
{ACAD_REACTORS
330
C
102
}
330
C
100
AcDbDictionary
281
     1
  3
CANNOSCALE
350
1C8
  3
CMLEADERSTYLE
350
1C5
  3
CTABLESTYLE
350
1C4
  3
CVIEWDETAILSTYLE
350
1C6
  3
CVIEWSECTIONSTYLE
350
1C7
  0
ACDBDETAILVIEWSTYLE
  5
6B
102
{ACAD_REACTORS
330
6A
102
}
330
6A
100
AcDbModelDocViewStyle
 70
     0
  3
Imperial24
290
     1
300
Imperial24
 90
        0
100
AcDbDetailViewStyle
 70
     0
 71
     0
 90
        3
 71
     1
340
55
 62
   256
 40
0.24
340
0
 62
   256
 40
0.24
300

 40
0.36
280
     3
 71
     2
340
5D
 90
       25
 62
   256
 71
     3
340
55
 62
   256
 40
0.24
 90
        1
 40
0.75
 90
        1
300
%<\AcVar ViewType \f "%tc1">% %<\AcVar ViewDetailId>%\PSCALE %<\AcVar ViewScale \f "%sn">%
 71
     4
340
5D
 90
       25
 62
   256
340
5D
 90
       25
 62
   256
280
     0
  0
LAYOUT
  5
6F
102
{ACAD_REACTORS
330
62
102
}
330
62
100
AcDbPlotSettings
  1

  2

  4

  6

 40
0.0
 41
0.0
 42
0.0
 43
0.0
 44
0.0
 45
0.0
 46
0.0
 47
0.0
 48
0.0
 49
0.0
140
0.0
141
0.0
142
1.0
143
1.0
 70
   688
 72
     0
 73
     0
 74
     5
  7

 75
    16
147
1.0
 76
     0
 77
     2
 78
   300
148
0.0
149
0.0
100
AcDbLayout
  1
Layout1
 70
     1
 71
     1
 10
0.0
 20
0.0
 11
12.0
 21
9.0
 12
0.0
 22
0.0
 32
0.0
 14
0.0
 24
0.0
 34
0.0
 15
0.0
 25
0.0
 35
0.0
146
0.0
 13
0.0
 23
0.0
 33
0.0
 16
1.0
 26
0.0
 36
0.0
 17
0.0
 27
1.0
 37
0.0
 76
     0
330
6C
  0
LAYOUT
  5
77
102
{ACAD_REACTORS
330
62
102
}
330
62
100
AcDbPlotSettings
  1

  2

  4

  6

 40
0.0
 41
0.0
 42
0.0
 43
0.0
 44
0.0
 45
0.0
 46
0.0
 47
0.0
 48
0.0
 49
0.0
140
0.0
141
0.0
142
1.0
143
1.0
 70
   688
 72
     0
 73
     0
 74
     5
  7

 75
    16
147
1.0
 76
     0
 77
     2
 78
   300
148
0.0
149
0.0
100
AcDbLayout
  1
Layout2
 70
     1
 71
     2
 10
0.0
 20
0.0
 11
12.0
 21
9.0
 12
0.0
 22
0.0
 32
0.0
 14
0.0
 24
0.0
 34
0.0
 15
0.0
 25
0.0
 35
0.0
146
0.0
 13
0.0
 23
0.0
 33
0.0
 16
1.0
 26
0.0
 36
0.0
 17
0.0
 27
1.0
 37
0.0
 76
     0
330
74
  0
LAYOUT
  5
73
102
{ACAD_REACTORS
330
62
102
}
330
62
100
AcDbPlotSettings
  1

  2

  4

  6

 40
0.0
 41
0.0
 42
0.0
 43
0.0
 44
0.0
 45
0.0
 46
0.0
 47
0.0
 48
0.0
 49
0.0
140
0.0
141
0.0
142
1.0
143
1.0
 70
  1712
 72
     0
 73
     0
 74
     0
  7

 75
     0
147
1.0
 76
     0
 77
     2
 78
   300
148
0.0
149
0.0
100
AcDbLayout
  1
Model
 70
     1
 71
     0
 10
0.0
 20
0.0
 11
12.0
 21
9.0
 12
0.0
 22
0.0
 32
0.0
 14
0.0
 24
0.0
 34
0.0
 15
0.0
 25
0.0
 35
0.0
146
0.0
 13
0.0
 23
0.0
 33
0.0
 16
1.0
 26
0.0
 36
0.0
 17
0.0
 27
1.0
 37
0.0
 76
     0
330
70
  0
MATERIAL
  5
19
102
{ACAD_XDICTIONARY
360
1A
102
}
102
{ACAD_REACTORS
330
10
102
}
330
10
100
AcDbMaterial
  1
ByBlock
 72
     0
 43
0.0208333333333333
 43
0.0
 43
0.0
 43
0.0
 43
0.0
 43
0.0208333333333333
 43
0.0
 43
0.0
 43
0.0
 43
0.0
 43
1.0
 43
0.0
 43
0.0
 43
0.0
 43
0.0
 43
1.0
 77
     0
 47
0.0208333333333333
 47
0.0
 47
0.0
 47
0.0
 47
0.0
 47
0.0208333333333333
 47
0.0
 47
0.0
 47
0.0
 47
0.0
 47
1.0
 47
0.0
 47
0.0
 47
0.0
 47
0.0
 47
1.0
171
     0
 49
0.0208333333333333
 49
0.0
 49
0.0
 49
0.0
 49
0.0
 49
0.0208333333333333
 49
0.0
 49
0.0
 49
0.0
 49
0.0
 49
1.0
 49
0.0
 49
0.0
 49
0.0
 49
0.0
 49
1.0
175
     0
142
0.0208333333333333
142
0.0
142
0.0
142
0.0
142
0.0
142
0.0208333333333333
142
0.0
142
0.0
142
0.0
142
0.0
142
1.0
142
0.0
142
0.0
142
0.0
142
0.0
142
1.0
179
     0
144
0.0208333333333333
144
0.0
144
0.0
144
0.0
144
0.0
144
0.0208333333333333
144
0.0
144
0.0
144
0.0
144
0.0
144
1.0
144
0.0
144
0.0
144
0.0
144
0.0
144
1.0
147
0.0208333333333333
147
0.0
147
0.0
147
0.0
147
0.0
147
0.0208333333333333
147
0.0
147
0.0
147
0.0
147
0.0
147
1.0
147
0.0
147
0.0
147
0.0
147
0.0
147
1.0
  0
MATERIAL
  5
11
102
{ACAD_XDICTIONARY
360
12
102
}
102
{ACAD_REACTORS
330
10
102
}
330
10
100
AcDbMaterial
  1
ByLayer
 72
     0
 43
0.0208333333333333
 43
0.0
 43
0.0
 43
0.0
 43
0.0
 43
0.0208333333333333
 43
0.0
 43
0.0
 43
0.0
 43
0.0
 43
1.0
 43
0.0
 43
0.0
 43
0.0
 43
0.0
 43
1.0
 77
     0
 47
0.0208333333333333
 47
0.0
 47
0.0
 47
0.0
 47
0.0
 47
0.0208333333333333
 47
0.0
 47
0.0
 47
0.0
 47
0.0
 47
1.0
 47
0.0
 47
0.0
 47
0.0
 47
0.0
 47
1.0
171
     0
 49
0.0208333333333333
 49
0.0
 49
0.0
 49
0.0
 49
0.0
 49
0.0208333333333333
 49
0.0
 49
0.0
 49
0.0
 49
0.0
 49
1.0
 49
0.0
 49
0.0
 49
0.0
 49
0.0
 49
1.0
175
     0
142
0.0208333333333333
142
0.0
142
0.0
142
0.0
142
0.0
142
0.0208333333333333
142
0.0
142
0.0
142
0.0
142
0.0
142
1.0
142
0.0
142
0.0
142
0.0
142
0.0
142
1.0
179
     0
144
0.0208333333333333
144
0.0
144
0.0
144
0.0
144
0.0
144
0.0208333333333333
144
0.0
144
0.0
144
0.0
144
0.0
144
1.0
144
0.0
144
0.0
144
0.0
144
0.0
144
1.0
147
0.0208333333333333
147
0.0
147
0.0
147
0.0
147
0.0
147
0.0208333333333333
147
0.0
147
0.0
147
0.0
147
0.0
147
1.0
147
0.0
147
0.0
147
0.0
147
0.0
147
1.0
  0
MATERIAL
  5
21
102
{ACAD_XDICTIONARY
360
22
102
}
102
{ACAD_REACTORS
330
10
102
}
330
10
100
AcDbMaterial
  1
Global
 72
     0
 43
0.0208333333333333
 43
0.0
 43
0.0
 43
0.0
 43
0.0
 43
0.0208333333333333
 43
0.0
 43
0.0
 43
0.0
 43
0.0
 43
1.0
 43
0.0
 43
0.0
 43
0.0
 43
0.0
 43
1.0
 77
     0
 47
0.0208333333333333
 47
0.0
 47
0.0
 47
0.0
 47
0.0
 47
0.0208333333333333
 47
0.0
 47
0.0
 47
0.0
 47
0.0
 47
1.0
 47
0.0
 47
0.0
 47
0.0
 47
0.0
 47
1.0
171
     0
 49
0.0208333333333333
 49
0.0
 49
0.0
 49
0.0
 49
0.0
 49
0.0208333333333333
 49
0.0
 49
0.0
 49
0.0
 49
0.0
 49
1.0
 49
0.0
 49
0.0
 49
0.0
 49
0.0
 49
1.0
175
     0
142
0.0208333333333333
142
0.0
142
0.0
142
0.0
142
0.0
142
0.0208333333333333
142
0.0
142
0.0
142
0.0
142
0.0
142
1.0
142
0.0
142
0.0
142
0.0
142
0.0
142
1.0
179
     0
144
0.0208333333333333
144
0.0
144
0.0
144
0.0
144
0.0
144
0.0208333333333333
144
0.0
144
0.0
144
0.0
144
0.0
144
1.0
144
0.0
144
0.0
144
0.0
144
0.0
144
1.0
147
0.0208333333333333
147
0.0
147
0.0
147
0.0
147
0.0
147
0.0208333333333333
147
0.0
147
0.0
147
0.0
147
0.0
147
1.0
147
0.0
147
0.0
147
0.0
147
0.0
147
1.0
  0
MLEADERSTYLE
  5
67
102
{ACAD_REACTORS
330
66
102
}
330
66
100
AcDbMLeaderStyle
179
     2
170
     2
171
     1
172
     0
 90
        2
 40
0.0
 41
0.0
173
     1
 91
-1056964608
340
5B
 92
       -2
290
     1
 42
0.09
291
     1
 43
0.36
  3
Standard
 44
0.18
300

342
55
174
     1
178
     6
175
     1
176
     0
 93
-1056964608
 45
0.18
292
     0
297
     0
 46
0.18
 94
-1056964608
 47
1.0
 49
1.0
140
1.0
293
     1
141
0.0
294
     1
177
     0
142
1.0
295
     1
296
     0
143
0.125
271
     0
272
     9
273
     9
298
     1
  0
MLINESTYLE
  5
60
102
{ACAD_REACTORS
330
5F
102
}
330
5F
100
AcDbMlineStyle
  2
STANDARD
 70
     0
  3

 62
   256
 51
90.0
 52
90.0
 71
     2
 49
0.5
 62
   256
  6
BYLAYER
 49
-0.5
 62
   256
  6
BYLAYER
  0
ACDBPLACEHOLDER
  5
F
102
{ACAD_REACTORS
330
E
102
}
330
E
  0
SCALE
  5
43
102
{ACAD_REACTORS
330
42
102
}
330
42
100
AcDbScale
 70
     0
300
1:1
140
1.0
141
1.0
290
     1
  0
SCALE
  5
44
102
{ACAD_REACTORS
330
42
102
}
330
42
100
AcDbScale
 70
     0
300
1/128" = 1'-0"
140
0.0078125
141
12.0
290
     0
  0
SCALE
  5
45
102
{ACAD_REACTORS
330
42
102
}
330
42
100
AcDbScale
 70
     0
300
1/64" = 1'-0"
140
0.015625
141
12.0
290
     0
  0
SCALE
  5
46
102
{ACAD_REACTORS
330
42
102
}
330
42
100
AcDbScale
 70
     0
300
1/32" = 1'-0"
140
0.03125
141
12.0
290
     0
  0
SCALE
  5
47
102
{ACAD_REACTORS
330
42
102
}
330
42
100
AcDbScale
 70
     0
300
1/16" = 1'-0"
140
0.0625
141
12.0
290
     0
  0
SCALE
  5
48
102
{ACAD_REACTORS
330
42
102
}
330
42
100
AcDbScale
 70
     0
300
3/32" = 1'-0"
140
0.09375
141
12.0
290
     0
  0
SCALE
  5
49
102
{ACAD_REACTORS
330
42
102
}
330
42
100
AcDbScale
 70
     0
300
1/8" = 1'-0"
140
0.125
141
12.0
290
     0
  0
SCALE
  5
4A
102
{ACAD_REACTORS
330
42
102
}
330
42
100
AcDbScale
 70
     0
300
3/16" = 1'-0"
140
0.1875
141
12.0
290
     0
  0
SCALE
  5
4B
102
{ACAD_REACTORS
330
42
102
}
330
42
100
AcDbScale
 70
     0
300
1/4" = 1'-0"
140
0.25
141
12.0
290
     0
  0
SCALE
  5
4C
102
{ACAD_REACTORS
330
42
102
}
330
42
100
AcDbScale
 70
     0
300
3/8" = 1'-0"
140
0.375
141
12.0
290
     0
  0
SCALE
  5
4D
102
{ACAD_REACTORS
330
42
102
}
330
42
100
AcDbScale
 70
     0
300
1/2" = 1'-0"
140
0.5
141
12.0
290
     0
  0
SCALE
  5
4E
102
{ACAD_REACTORS
330
42
102
}
330
42
100
AcDbScale
 70
     0
300
3/4" = 1'-0"
140
0.75
141
12.0
290
     0
  0
SCALE
  5
4F
102
{ACAD_REACTORS
330
42
102
}
330
42
100
AcDbScale
 70
     0
300
1" = 1'-0"
140
1.0
141
12.0
290
     0
  0
SCALE
  5
50
102
{ACAD_REACTORS
330
42
102
}
330
42
100
AcDbScale
 70
     0
300
1-1/2" = 1'-0"
140
1.5
141
12.0
290
     0
  0
SCALE
  5
51
102
{ACAD_REACTORS
330
42
102
}
330
42
100
AcDbScale
 70
     0
300
3" = 1'-0"
140
3.0
141
12.0
290
     0
  0
SCALE
  5
52
102
{ACAD_REACTORS
330
42
102
}
330
42
100
AcDbScale
 70
     0
300
6" = 1'-0"
140
6.0
141
12.0
290
     0
  0
SCALE
  5
53
102
{ACAD_REACTORS
330
42
102
}
330
42
100
AcDbScale
 70
     0
300
1'-0" = 1'-0"
140
12.0
141
12.0
290
     0
  0
ACDBSECTIONVIEWSTYLE
  5
69
102
{ACAD_REACTORS
330
68
102
}
330
68
100
AcDbModelDocViewStyle
 70
     0
  3
Imperial24
290
     1
300
Imperial24
 90
        0
100
AcDbSectionViewStyle
 70
     0
 71
     0
 90
       78
 71
     1
340
55
 62
   256
 40
0.24
340
0
340
0
 62
   256
 40
0.24
300
I, O, Q, S, X, Z
 40
0.48
 90
        3
 40
0.18
 90
        1
 71
     2
340
5D
 90
       25
 62
   256
340
5D
 90
       50
 62
   256
 40
0.24
 40
0.0
 40
0.24
 71
     3
340
55
 62
   256
 40
0.24
 90
        1
 40
0.75
 90
        1
300
%<\AcVar ViewType \f "%tc1">% %<\AcVar ViewSectionStartId>%-%<\AcVar ViewSectionEndId>%\PSCALE %<\AcVar ViewScale \f "%sn">%
 71
     4
 62
   256
 62
   257
300
ANSI31
 40
1.0
 90
        0
290
     0
290
     0
 90
        6
 40
0.0
 40
1.570796326794896
 40
0.2617993877991494
 40
1.308996938995747
 40
-0.2617993877991494
 40
1.832595714594046
  0
TABLESTYLE
  5
65
102
{ACAD_XDICTIONARY
360
1C9
102
}
102
{ACAD_REACTORS
330
64
102
}
330
64
100
AcDbTableStyle
280
     0
  3
Standard
 70
     0
 71
     0
 40
0.06
 41
0.06
280
     0
281
     0
  7
Standard
140
0.18
170
     2
 62
     0
 63
     7
283
     0
 90
      512
 91
        0
  1

274
    -2
284
     1
 64
     0
275
    -2
285
     1
 65
     0
276
    -2
286
     1
 66
     0
277
    -2
287
     1
 67
     0
278
    -2
288
     1
 68
     0
279
    -2
289
     1
 69
     0
  7
Standard
140
0.25
170
     5
 62
     0
 63
     7
283
     0
 90
      512
 91
        0
  1

274
    -2
284
     1
 64
     0
275
    -2
285
     1
 65
     0
276
    -2
286
     1
 66
     0
277
    -2
287
     1
 67
     0
278
    -2
288
     1
 68
     0
279
    -2
289
     1
 69
     0
  7
Standard
140
0.18
170
     5
 62
     0
 63
     7
283
     0
 90
      512
 91
        0
  1

274
    -2
284
     1
 64
     0
275
    -2
285
     1
 65
     0
276
    -2
286
     1
 66
     0
277
    -2
287
     1
 67
     0
278
    -2
288
     1
 68
     0
279
    -2
289
     1
 69
     0
  0
VISUALSTYLE
  5
2F
102
{ACAD_REACTORS
330
29
102
}
330
29
100
AcDbVisualStyle
  2
2dWireframe
 70
     4
177
     3
291
     0
 70
    58
 90
        0
176
     1
 90
        2
176
     1
 90
        0
176
     1
 90
        0
176
     1
 40
0.6
176
     1
 40
30.0
176
     1
 62
     7
420
 16777215
176
     1
 90
        1
176
     1
 90
        4
176
     1
 62
     7
176
     1
 62
   257
176
     1
 90
        1
176
     1
 90
        1
176
     1
 40
1.0
176
     1
 90
        0
176
     1
 62
   257
176
     1
 40
1.0
176
     1
 90
        1
176
     1
 90
        6
176
     1
 90
        2
176
     1
 62
     7
176
     1
 90
        5
176
     1
 90
        0
176
     1
 90
        0
176
     1
290
     0
176
     1
 90
        1
176
     1
 40
0.0
176
     1
 90
        0
176
     1
290
     1
176
     1
290
     1
176
     1
290
     0
176
     1
290
     0
176
     1
290
     0
176
     1
290
     0
176
     1
290
     0
176
     1
290
     0
176
     1
290
     0
176
     1
 90
       50
176
     1
 40
0.0
176
     1
 40
1.0
176
     1
 90
        0
176
     1
 62
    18
420
        0
176
     1
 90
       50
176
     1
 90
        3
176
     1
 62
     5
420
      255
176
     1
290
     0
176
     1
 90
       50
176
     1
 90
       50
176
     1
 90
       50
176
     1
290
     0
176
     1
 90
       50
176
     1
 62
   256
176
     0
 40
1.0
176
     0
 90
        2
176
     1
  1
strokes_ogs.tif
176
     1
290
     0
176
     1
 40
1.0
176
     1
 40
1.0
176
     1
  0
VISUALSTYLE
  5
2E
102
{ACAD_REACTORS
330
29
102
}
330
29
100
AcDbVisualStyle
  2
Basic
 70
     7
177
     3
291
     1
 70
    58
 90
        1
176
     1
 90
        0
176
     1
 90
        1
176
     1
 90
        0
176
     1
 40
0.6
176
     1
 40
30.0
176
     1
 62
     7
420
 16777215
176
     1
 90
        0
176
     1
 90
        4
176
     1
 62
     7
176
     1
 62
   257
176
     1
 90
        1
176
     1
 90
        1
176
     1
 40
1.0
176
     1
 90
        8
176
     1
 62
     7
176
     1
 40
1.0
176
     1
 90
        1
176
     1
 90
        6
176
     1
 90
        2
176
     1
 62
     7
176
     1
 90
        5
176
     1
 90
        0
176
     1
 90
        0
176
     1
290
     0
176
     1
 90
        1
176
     1
 40
0.0
176
     1
 90
        0
176
     1
290
     0
176
     1
290
     1
176
     1
290
     1
176
     1
290
     0
176
     1
290
     0
176
     1
290
     0
176
     1
290
     0
176
     1
290
     0
176
     1
290
     0
176
     1
 90
       50
176
     1
 40
0.0
176
     1
 40
1.0
176
     1
 90
        0
176
     1
 62
    18
420
        0
176
     1
 90
       50
176
     1
 90
        3
176
     1
 62
     5
420
      255
176
     1
290
     0
176
     1
 90
       50
176
     1
 90
       50
176
     1
 90
       50
176
     1
290
     0
176
     1
 90
       50
176
     1
 62
   256
176
     0
 40
1.0
176
     0
 90
        2
176
     1
  1
strokes_ogs.tif
176
     1
290
     0
176
     1
 40
1.0
176
     1
 40
1.0
176
     1
  0
VISUALSTYLE
  5
35
102
{ACAD_REACTORS
330
29
102
}
330
29
100
AcDbVisualStyle
  2
Brighten
 70
    12
177
     3
291
     1
 70
    58
 90
        2
176
     1
 90
        2
176
     1
 90
        0
176
     1
 90
        0
176
     1
 40
0.6
176
     1
 40
30.0
176
     1
 62
     7
420
 16777215
176
     1
 90
        1
176
     1
 90
        4
176
     1
 62
     7
176
     1
 62
   257
176
     1
 90
        1
176
     1
 90
        1
176
     1
 40
1.0
176
     1
 90
        8
176
     1
 62
     7
176
     1
 40
1.0
176
     1
 90
        1
176
     1
 90
        6
176
     1
 90
        2
176
     1
 62
     7
176
     1
 90
        5
176
     1
 90
        0
176
     1
 90
        0
176
     1
290
     0
176
     1
 90
        1
176
     1
 40
50.0
176
     1
 90
        0
176
     1
290
     0
176
     1
290
     1
176
     1
290
     1
176
     1
290
     0
176
     1
290
     0
176
     1
290
     0
176
     1
290
     0
176
     1
290
     0
176
     1
290
     0
176
     1
 90
       50
176
     1
 40
0.0
176
     1
 40
1.0
176
     1
 90
        0
176
     1
 62
    18
420
        0
176
     1
 90
       50
176
     1
 90
        3
176
     1
 62
     5
420
      255
176
     1
290
     0
176
     1
 90
       50
176
     1
 90
       50
176
     1
 90
       50
176
     1
290
     0
176
     1
 90
       50
176
     1
 62
   256
176
     0
 40
1.0
176
     0
 90
        2
176
     1
  1
strokes_ogs.tif
176
     1
290
     0
176
     1
 40
1.0
176
     1
 40
1.0
176
     1
  0
VISUALSTYLE
  5
39
102
{ACAD_REACTORS
330
29
102
}
330
29
100
AcDbVisualStyle
  2
ColorChange
 70
    16
177
     3
291
     1
 70
    58
 90
        2
176
     1
 90
        2
176
     1
 90
        3
176
     1
 90
        0
176
     1
 40
0.6
176
     1
 40
30.0
176
     1
 62
     8
420
  8421504
176
     1
 90
        1
176
     1
 90
        4
176
     1
 62
     7
176
     1
 62
   257
176
     1
 90
        1
176
     1
 90
        1
176
     1
 40
1.0
176
     1
 90
        8
176
     1
 62
     8
420
  8421504
176
     1
 40
1.0
176
     1
 90
        1
176
     1
 90
        6
176
     1
 90
        2
176
     1
 62
     7
176
     1
 90
        5
176
     1
 90
        0
176
     1
 90
        0
176
     1
290
     0
176
     1
 90
        1
176
     1
 40
0.0
176
     1
 90
        0
176
     1
290
     0
176
     1
290
     1
176
     1
290
     1
176
     1
290
     0
176
     1
290
     0
176
     1
290
     0
176
     1
290
     0
176
     1
290
     0
176
     1
290
     0
176
     1
 90
       50
176
     1
 40
0.0
176
     1
 40
1.0
176
     1
 90
        0
176
     1
 62
    18
420
        0
176
     1
 90
       50
176
     1
 90
        3
176
     1
 62
     5
420
      255
176
     1
290
     0
176
     1
 90
       50
176
     1
 90
       50
176
     1
 90
       50
176
     1
290
     0
176
     1
 90
       50
176
     1
 62
   256
176
     0
 40
1.0
176
     0
 90
        2
176
     1
  1
strokes_ogs.tif
176
     1
290
     0
176
     1
 40
1.0
176
     1
 40
1.0
176
     1
  0
VISUALSTYLE
  5
32
102
{ACAD_REACTORS
330
29
102
}
330
29
100
AcDbVisualStyle
  2
Conceptual
 70
     9
177
     3
291
     0
 70
    58
 90
        3
176
     1
 90
        2
176
     1
 90
        0
176
     1
 90
        0
176
     1
 40
0.6
176
     1
 40
30.0
176
     1
 62
     7
420
 16777215
176
     1
 90
        2
176
     1
 90
        2
176
     1
 62
     7
176
     1
 62
   257
176
     1
 90
        1
176
     1
 90
        1
176
     1
 40
179.0
176
     1
 90
        8
176
     1
 62
     7
176
     1
 40
1.0
176
     1
 90
        1
176
     1
 90
        6
176
     1
 90
        2
176
     1
 62
     7
176
     1
 90
        3
176
     1
 90
        0
176
     1
 90
        0
176
     1
290
     0
176
     1
 90
        1
176
     1
 40
0.0
176
     1
 90
        0
176
     1
290
     0
176
     1
290
     1
176
     1
290
     1
176
     1
290
     0
176
     1
290
     0
176
     1
290
     0
176
     1
290
     0
176
     1
290
     0
176
     1
290
     0
176
     1
 90
       50
176
     1
 40
0.0
176
     1
 40
1.0
176
     1
 90
        0
176
     1
 62
    18
420
        0
176
     1
 90
       50
176
     1
 90
        3
176
     1
 62
     5
420
      255
176
     1
290
     0
176
     1
 90
       50
176
     1
 90
       50
176
     1
 90
       50
176
     1
290
     0
176
     1
 90
       50
176
     1
 62
   256
176
     0
 40
1.0
176
     0
 90
        2
176
     1
  1
strokes_ogs.tif
176
     1
290
     0
176
     1
 40
1.0
176
     1
 40
1.0
176
     1
  0
VISUALSTYLE
  5
34
102
{ACAD_REACTORS
330
29
102
}
330
29
100
AcDbVisualStyle
  2
Dim
 70
    11
177
     3
291
     1
 70
    58
 90
        2
176
     1
 90
        2
176
     1
 90
        0
176
     1
 90
        0
176
     1
 40
0.6
176
     1
 40
30.0
176
     1
 62
     7
420
 16777215
176
     1
 90
        1
176
     1
 90
        4
176
     1
 62
     7
176
     1
 62
   257
176
     1
 90
        1
176
     1
 90
        1
176
     1
 40
1.0
176
     1
 90
        8
176
     1
 62
     7
176
     1
 40
1.0
176
     1
 90
        1
176
     1
 90
        6
176
     1
 90
        2
176
     1
 62
     7
176
     1
 90
        5
176
     1
 90
        0
176
     1
 90
        0
176
     1
290
     0
176
     1
 90
        1
176
     1
 40
-50.0
176
     1
 90
        0
176
     1
290
     0
176
     1
290
     1
176
     1
290
     1
176
     1
290
     0
176
     1
290
     0
176
     1
290
     0
176
     1
290
     0
176
     1
290
     0
176
     1
290
     0
176
     1
 90
       50
176
     1
 40
0.0
176
     1
 40
1.0
176
     1
 90
        0
176
     1
 62
    18
420
        0
176
     1
 90
       50
176
     1
 90
        3
176
     1
 62
     5
420
      255
176
     1
290
     0
176
     1
 90
       50
176
     1
 90
       50
176
     1
 90
       50
176
     1
290
     0
176
     1
 90
       50
176
     1
 62
   256
176
     0
 40
1.0
176
     0
 90
        2
176
     1
  1
strokes_ogs.tif
176
     1
290
     0
176
     1
 40
1.0
176
     1
 40
1.0
176
     1
  0
VISUALSTYLE
  5
41
102
{ACAD_REACTORS
330
29
102
}
330
29
100
AcDbVisualStyle
  2
EdgeColorOff
 70
    22
177
     3
291
     1
 70
    58
 90
        2
176
     0
 90
        2
176
     0
 90
        0
176
     0
 90
        0
176
     0
 40
0.6
176
     0
 40
30.0
176
     0
 62
     7
420
 16777215
176
     0
 90
        1
176
     0
 90
        4
176
     0
 62
     7
176
     0
 62
   257
176
     0
 90
        1
176
     0
 90
        1
176
     0
 40
1.0
176
     0
 90
        8
176
     2
 62
     7
176
     0
 40
1.0
176
     0
 90
        1
176
     0
 90
        6
176
     0
 90
        2
176
     0
 62
     7
176
     0
 90
        5
176
     0
 90
        0
176
     0
 90
        0
176
     0
290
     0
176
     0
 90
        1
176
     0
 40
0.0
176
     0
 90
        0
176
     0
290
     0
176
     0
290
     1
176
     0
290
     1
176
     0
290
     0
176
     0
290
     0
176
     0
290
     0
176
     0
290
     0
176
     0
290
     0
176
     0
290
     0
176
     0
 90
       50
176
     0
 40
0.0
176
     0
 40
1.0
176
     0
 90
        0
176
     0
 62
    18
420
        0
176
     0
 90
       50
176
     0
 90
        3
176
     0
 62
     5
420
      255
176
     0
290
     0
176
     0
 90
       50
176
     0
 90
       50
176
     0
 90
       50
176
     0
290
     0
176
     0
 90
       50
176
     0
 62
   256
176
     0
 40
1.0
176
     0
 90
        2
176
     0
  1
strokes_ogs.tif
176
     0
290
     0
176
     0
 40
1.0
176
     0
 40
1.0
176
     0
  0
VISUALSTYLE
  5
38
102
{ACAD_REACTORS
330
29
102
}
330
29
100
AcDbVisualStyle
  2
Facepattern
 70
    15
177
     3
291
     1
 70
    58
 90
        2
176
     1
 90
        2
176
     1
 90
        0
176
     1
 90
        0
176
     1
 40
0.6
176
     1
 40
30.0
176
     1
 62
     7
420
 16777215
176
     1
 90
        1
176
     1
 90
        4
176
     1
 62
     7
176
     1
 62
   257
176
     1
 90
        1
176
     1
 90
        1
176
     1
 40
1.0
176
     1
 90
        8
176
     1
 62
     7
176
     1
 40
1.0
176
     1
 90
        1
176
     1
 90
        6
176
     1
 90
        2
176
     1
 62
     7
176
     1
 90
        5
176
     1
 90
        0
176
     1
 90
        0
176
     1
290
     0
176
     1
 90
        1
176
     1
 40
0.0
176
     1
 90
        0
176
     1
290
     0
176
     1
290
     1
176
     1
290
     1
176
     1
290
     0
176
     1
290
     0
176
     1
290
     0
176
     1
290
     0
176
     1
290
     0
176
     1
290
     0
176
     1
 90
       50
176
     1
 40
0.0
176
     1
 40
1.0
176
     1
 90
        0
176
     1
 62
    18
420
        0
176
     1
 90
       50
176
     1
 90
        3
176
     1
 62
     5
420
      255
176
     1
290
     0
176
     1
 90
       50
176
     1
 90
       50
176
     1
 90
       50
176
     1
290
     0
176
     1
 90
       50
176
     1
 62
   256
176
     0
 40
1.0
176
     0
 90
        2
176
     1
  1
strokes_ogs.tif
176
     1
290
     0
176
     1
 40
1.0
176
     1
 40
1.0
176
     1
  0
VISUALSTYLE
  5
2A
102
{ACAD_REACTORS
330
29
102
}
330
29
100
AcDbVisualStyle
  2
Flat
 70
     0
177
     3
291
     1
 70
    58
 90
        2
176
     1
 90
        1
176
     1
 90
        1
176
     1
 90
        2
176
     1
 40
0.6
176
     1
 40
30.0
176
     1
 62
     7
420
 16777215
176
     1
 90
        0
176
     1
 90
        0
176
     1
 62
     7
176
     1
 62
   257
176
     1
 90
        1
176
     1
 90
        1
176
     1
 40
1.0
176
     1
 90
        8
176
     1
 62
     7
176
     1
 40
1.0
176
     1
 90
        1
176
     1
 90
        6
176
     1
 90
        2
176
     1
 62
     7
176
     1
 90
        5
176
     1
 90
        0
176
     1
 90
        0
176
     1
290
     0
176
     1
 90
       13
176
     1
 40
0.0
176
     1
 90
        0
176
     1
290
     0
176
     1
290
     1
176
     1
290
     1
176
     1
290
     0
176
     1
290
     0
176
     1
290
     0
176
     1
290
     0
176
     1
290
     0
176
     1
290
     0
176
     1
 90
       50
176
     1
 40
0.0
176
     1
 40
1.0
176
     1
 90
        0
176
     1
 62
    18
420
        0
176
     1
 90
       50
176
     1
 90
        3
176
     1
 62
     5
420
      255
176
     1
290
     0
176
     1
 90
       50
176
     1
 90
       50
176
     1
 90
       50
176
     1
290
     0
176
     1
 90
       50
176
     1
 62
   256
176
     0
 40
1.0
176
     0
 90
        2
176
     1
  1
strokes_ogs.tif
176
     1
290
     0
176
     1
 40
1.0
176
     1
 40
1.0
176
     1
  0
VISUALSTYLE
  5
2B
102
{ACAD_REACTORS
330
29
102
}
330
29
100
AcDbVisualStyle
  2
FlatWithEdges
 70
     1
177
     3
291
     1
 70
    58
 90
        2
176
     1
 90
        1
176
     1
 90
        1
176
     1
 90
        2
176
     1
 40
0.6
176
     1
 40
30.0
176
     1
 62
     7
420
 16777215
176
     1
 90
        1
176
     1
 90
        0
176
     1
 62
     7
176
     1
 62
   257
176
     1
 90
        1
176
     1
 90
        1
176
     1
 40
1.0
176
     1
 90
        0
176
     1
 62
   257
176
     1
 40
1.0
176
     1
 90
        1
176
     1
 90
        6
176
     1
 90
        2
176
     1
 62
     7
176
     1
 90
        5
176
     1
 90
        0
176
     1
 90
        0
176
     1
290
     0
176
     1
 90
       13
176
     1
 40
0.0
176
     1
 90
        0
176
     1
290
     0
176
     1
290
     1
176
     1
290
     1
176
     1
290
     0
176
     1
290
     0
176
     1
290
     0
176
     1
290
     0
176
     1
290
     0
176
     1
290
     0
176
     1
 90
       50
176
     1
 40
0.0
176
     1
 40
1.0
176
     1
 90
        0
176
     1
 62
    18
420
        0
176
     1
 90
       50
176
     1
 90
        3
176
     1
 62
     5
420
      255
176
     1
290
     0
176
     1
 90
       50
176
     1
 90
       50
176
     1
 90
       50
176
     1
290
     0
176
     1
 90
       50
176
     1
 62
   256
176
     0
 40
1.0
176
     0
 90
        2
176
     1
  1
strokes_ogs.tif
176
     1
290
     0
176
     1
 40
1.0
176
     1
 40
1.0
176
     1
  0
VISUALSTYLE
  5
2C
102
{ACAD_REACTORS
330
29
102
}
330
29
100
AcDbVisualStyle
  2
Gouraud
 70
     2
177
     3
291
     1
 70
    58
 90
        2
176
     1
 90
        2
176
     1
 90
        1
176
     1
 90
        2
176
     1
 40
0.6
176
     1
 40
30.0
176
     1
 62
     7
420
 16777215
176
     1
 90
        0
176
     1
 90
        0
176
     1
 62
     7
176
     1
 62
   257
176
     1
 90
        1
176
     1
 90
        1
176
     1
 40
1.0
176
     1
 90
        0
176
     1
 62
     7
176
     1
 40
1.0
176
     1
 90
        1
176
     1
 90
        6
176
     1
 90
        2
176
     1
 62
     7
176
     1
 90
        5
176
     1
 90
        0
176
     1
 90
        0
176
     1
290
     0
176
     1
 90
       13
176
     1
 40
0.0
176
     1
 90
        0
176
     1
290
     0
176
     1
290
     1
176
     1
290
     1
176
     1
290
     0
176
     1
290
     0
176
     1
290
     0
176
     1
290
     0
176
     1
290
     0
176
     1
290
     0
176
     1
 90
       50
176
     1
 40
0.0
176
     1
 40
1.0
176
     1
 90
        0
176
     1
 62
    18
420
        0
176
     1
 90
       50
176
     1
 90
        3
176
     1
 62
     5
420
      255
176
     1
290
     0
176
     1
 90
       50
176
     1
 90
       50
176
     1
 90
       50
176
     1
290
     0
176
     1
 90
       50
176
     1
 62
   256
176
     0
 40
1.0
176
     0
 90
        2
176
     1
  1
strokes_ogs.tif
176
     1
290
     0
176
     1
 40
1.0
176
     1
 40
1.0
176
     1
  0
VISUALSTYLE
  5
2D
102
{ACAD_REACTORS
330
29
102
}
330
29
100
AcDbVisualStyle
  2
GouraudWithEdges
 70
     3
177
     3
291
     1
 70
    58
 90
        2
176
     1
 90
        2
176
     1
 90
        1
176
     1
 90
        2
176
     1
 40
0.6
176
     1
 40
30.0
176
     1
 62
     7
420
 16777215
176
     1
 90
        1
176
     1
 90
        0
176
     1
 62
     7
176
     1
 62
   257
176
     1
 90
        1
176
     1
 90
        1
176
     1
 40
1.0
176
     1
 90
        0
176
     1
 62
   257
176
     1
 40
1.0
176
     1
 90
        1
176
     1
 90
        6
176
     1
 90
        2
176
     1
 62
     7
176
     1
 90
        5
176
     1
 90
        0
176
     1
 90
        0
176
     1
290
     0
176
     1
 90
       13
176
     1
 40
0.0
176
     1
 90
        0
176
     1
290
     0
176
     1
290
     1
176
     1
290
     1
176
     1
290
     0
176
     1
290
     0
176
     1
290
     0
176
     1
290
     0
176
     1
290
     0
176
     1
290
     0
176
     1
 90
       50
176
     1
 40
0.0
176
     1
 40
1.0
176
     1
 90
        0
176
     1
 62
    18
420
        0
176
     1
 90
       50
176
     1
 90
        3
176
     1
 62
     5
420
      255
176
     1
290
     0
176
     1
 90
       50
176
     1
 90
       50
176
     1
 90
       50
176
     1
290
     0
176
     1
 90
       50
176
     1
 62
   256
176
     0
 40
1.0
176
     0
 90
        2
176
     1
  1
strokes_ogs.tif
176
     1
290
     0
176
     1
 40
1.0
176
     1
 40
1.0
176
     1
  0
VISUALSTYLE
  5
31
102
{ACAD_REACTORS
330
29
102
}
330
29
100
AcDbVisualStyle
  2
Hidden
 70
     6
177
     3
291
     0
 70
    58
 90
        1
176
     1
 90
        2
176
     1
 90
        2
176
     1
 90
        0
176
     1
 40
0.6
176
     1
 40
30.0
176
     1
 62
     7
420
 16777215
176
     1
 90
        2
176
     1
 90
        2
176
     1
 62
     7
176
     1
 62
   257
176
     1
 90
        2
176
     1
 90
        1
176
     1
 40
40.0
176
     1
 90
        0
176
     1
 62
   257
176
     1
 40
1.0
176
     1
 90
        1
176
     1
 90
        6
176
     1
 90
        2
176
     1
 62
     7
176
     1
 90
        3
176
     1
 90
        0
176
     1
 90
        0
176
     1
290
     0
176
     1
 90
        1
176
     1
 40
0.0
176
     1
 90
        0
176
     1
290
     0
176
     1
290
     1
176
     1
290
     1
176
     1
290
     0
176
     1
290
     0
176
     1
290
     0
176
     1
290
     0
176
     1
290
     0
176
     1
290
     0
176
     1
 90
       50
176
     1
 40
0.0
176
     1
 40
1.0
176
     1
 90
        0
176
     1
 62
    18
420
        0
176
     1
 90
       50
176
     1
 90
        3
176
     1
 62
     5
420
      255
176
     1
290
     0
176
     1
 90
       50
176
     1
 90
       50
176
     1
 90
       50
176
     1
290
     0
176
     1
 90
       50
176
     1
 62
   256
176
     0
 40
1.0
176
     0
 90
        2
176
     1
  1
strokes_ogs.tif
176
     1
290
     0
176
     1
 40
1.0
176
     1
 40
1.0
176
     1
  0
VISUALSTYLE
  5
3F
102
{ACAD_REACTORS
330
29
102
}
330
29
100
AcDbVisualStyle
  2
JitterOff
 70
    20
177
     3
291
     1
 70
    58
 90
        2
176
     0
 90
        2
176
     0
 90
        0
176
     0
 90
        0
176
     0
 40
0.6
176
     0
 40
30.0
176
     0
 62
     7
420
 16777215
176
     0
 90
        1
176
     0
 90
        4
176
     0
 62
     7
176
     0
 62
   257
176
     0
 90
        1
176
     0
 90
        1
176
     0
 40
1.0
176
     0
 90
       10
176
     2
 62
     7
176
     0
 40
1.0
176
     0
 90
        1
176
     0
 90
        6
176
     0
 90
        2
176
     0
 62
     7
176
     0
 90
        5
176
     0
 90
        0
176
     0
 90
        0
176
     0
290
     0
176
     0
 90
        1
176
     0
 40
0.0
176
     0
 90
        0
176
     0
290
     0
176
     0
290
     1
176
     0
290
     1
176
     0
290
     0
176
     0
290
     0
176
     0
290
     0
176
     0
290
     0
176
     0
290
     0
176
     0
290
     0
176
     0
 90
       50
176
     0
 40
0.0
176
     0
 40
1.0
176
     0
 90
        0
176
     0
 62
    18
420
        0
176
     0
 90
       50
176
     0
 90
        3
176
     0
 62
     5
420
      255
176
     0
290
     0
176
     0
 90
       50
176
     0
 90
       50
176
     0
 90
       50
176
     0
290
     0
176
     0
 90
       50
176
     0
 62
   256
176
     0
 40
1.0
176
     0
 90
        2
176
     0
  1
strokes_ogs.tif
176
     0
290
     0
176
     0
 40
1.0
176
     0
 40
1.0
176
     0
  0
VISUALSTYLE
  5
37
102
{ACAD_REACTORS
330
29
102
}
330
29
100
AcDbVisualStyle
  2
Linepattern
 70
    14
177
     3
291
     1
 70
    58
 90
        2
176
     1
 90
        2
176
     1
 90
        0
176
     1
 90
        0
176
     1
 40
0.6
176
     1
 40
30.0
176
     1
 62
     7
420
 16777215
176
     1
 90
        1
176
     1
 90
        4
176
     1
 62
     7
176
     1
 62
   257
176
     1
 90
        7
176
     1
 90
        7
176
     1
 40
1.0
176
     1
 90
        8
176
     1
 62
     7
176
     1
 40
1.0
176
     1
 90
        1
176
     1
 90
        6
176
     1
 90
        2
176
     1
 62
     7
176
     1
 90
        5
176
     1
 90
        0
176
     1
 90
        0
176
     1
290
     0
176
     1
 90
        1
176
     1
 40
0.0
176
     1
 90
        0
176
     1
290
     0
176
     1
290
     1
176
     1
290
     1
176
     1
290
     0
176
     1
290
     0
176
     1
290
     0
176
     1
290
     0
176
     1
290
     0
176
     1
290
     0
176
     1
 90
       50
176
     1
 40
0.0
176
     1
 40
1.0
176
     1
 90
        0
176
     1
 62
    18
420
        0
176
     1
 90
       50
176
     1
 90
        3
176
     1
 62
     5
420
      255
176
     1
290
     0
176
     1
 90
       50
176
     1
 90
       50
176
     1
 90
       50
176
     1
290
     0
176
     1
 90
       50
176
     1
 62
   256
176
     0
 40
1.0
176
     0
 90
        2
176
     1
  1
strokes_ogs.tif
176
     1
290
     0
176
     1
 40
1.0
176
     1
 40
1.0
176
     1
  0
VISUALSTYLE
  5
40
102
{ACAD_REACTORS
330
29
102
}
330
29
100
AcDbVisualStyle
  2
OverhangOff
 70
    21
177
     3
291
     1
 70
    58
 90
        2
176
     0
 90
        2
176
     0
 90
        0
176
     0
 90
        0
176
     0
 40
0.6
176
     0
 40
30.0
176
     0
 62
     7
420
 16777215
176
     0
 90
        1
176
     0
 90
        4
176
     0
 62
     7
176
     0
 62
   257
176
     0
 90
        1
176
     0
 90
        1
176
     0
 40
1.0
176
     0
 90
        9
176
     2
 62
     7
176
     0
 40
1.0
176
     0
 90
        1
176
     0
 90
        6
176
     0
 90
        2
176
     0
 62
     7
176
     0
 90
        5
176
     0
 90
        0
176
     0
 90
        0
176
     0
290
     0
176
     0
 90
        1
176
     0
 40
0.0
176
     0
 90
        0
176
     0
290
     0
176
     0
290
     1
176
     0
290
     1
176
     0
290
     0
176
     0
290
     0
176
     0
290
     0
176
     0
290
     0
176
     0
290
     0
176
     0
290
     0
176
     0
 90
       50
176
     0
 40
0.0
176
     0
 40
1.0
176
     0
 90
        0
176
     0
 62
    18
420
        0
176
     0
 90
       50
176
     0
 90
        3
176
     0
 62
     5
420
      255
176
     0
290
     0
176
     0
 90
       50
176
     0
 90
       50
176
     0
 90
       50
176
     0
290
     0
176
     0
 90
       50
176
     0
 62
   256
176
     0
 40
1.0
176
     0
 90
        2
176
     0
  1
strokes_ogs.tif
176
     0
290
     0
176
     0
 40
1.0
176
     0
 40
1.0
176
     0
  0
VISUALSTYLE
  5
33
102
{ACAD_REACTORS
330
29
102
}
330
29
100
AcDbVisualStyle
  2
Realistic
 70
     8
177
     3
291
     0
 70
    58
 90
        2
176
     1
 90
        3
176
     1
 90
        0
176
     1
 90
        2
176
     1
 40
0.6
176
     1
 40
30.0
176
     1
 62
     7
420
 16777215
176
     1
 90
        0
176
     1
 90
        0
176
     1
 62
     7
176
     1
 62
   257
176
     1
 90
        1
176
     1
 90
        1
176
     1
 40
1.0
176
     1
 90
        8
176
     1
 62
   257
176
     1
 40
1.0
176
     1
 90
        1
176
     1
 90
        6
176
     1
 90
        2
176
     1
 62
     7
176
     1
 90
        3
176
     1
 90
        0
176
     1
 90
        0
176
     1
290
     0
176
     1
 90
       13
176
     1
 40
0.0
176
     1
 90
        0
176
     1
290
     0
176
     1
290
     1
176
     1
290
     1
176
     1
290
     0
176
     1
290
     0
176
     1
290
     0
176
     1
290
     0
176
     1
290
     0
176
     1
290
     0
176
     1
 90
       50
176
     1
 40
0.0
176
     1
 40
1.0
176
     1
 90
        0
176
     1
 62
    18
420
        0
176
     1
 90
       50
176
     1
 90
        3
176
     1
 62
     5
420
      255
176
     1
290
     0
176
     1
 90
       50
176
     1
 90
       50
176
     1
 90
       50
176
     1
290
     0
176
     1
 90
       50
176
     1
 62
   256
176
     0
 40
1.0
176
     0
 90
        2
176
     1
  1
strokes_ogs.tif
176
     1
290
     0
176
     1
 40
1.0
176
     1
 40
1.0
176
     1
  0
VISUALSTYLE
  5
3E
102
{ACAD_REACTORS
330
29
102
}
330
29
100
AcDbVisualStyle
  2
Shaded
 70
    27
177
     3
291
     0
 70
    58
 90
        2
176
     1
 90
        2
176
     1
 90
        1
176
     1
 90
        2
176
     1
 40
0.6
176
     1
 40
30.0
176
     1
 62
     7
420
 16777215
176
     1
 90
        0
176
     1
 90
        4
176
     1
 62
     7
176
     1
 62
   257
176
     1
 90
        1
176
     1
 90
        1
176
     1
 40
1.0
176
     1
 90
        8
176
     1
 62
   257
176
     1
 40
1.0
176
     1
 90
        1
176
     1
 90
        6
176
     1
 90
        2
176
     1
 62
     8
420
  7895160
176
     1
 90
        3
176
     1
 90
        0
176
     1
 90
        0
176
     1
290
     0
176
     1
 90
        5
176
     1
 40
0.0
176
     1
 90
        0
176
     1
290
     0
176
     1
290
     1
176
     1
290
     1
176
     1
290
     0
176
     1
290
     0
176
     1
290
     0
176
     1
290
     0
176
     1
290
     0
176
     1
290
     0
176
     1
 90
       50
176
     1
 40
0.0
176
     1
 40
1.0
176
     1
 90
        0
176
     1
 62
    18
420
        0
176
     1
 90
       50
176
     1
 90
        3
176
     1
 62
     5
420
      255
176
     1
290
     0
176
     1
 90
       50
176
     1
 90
       50
176
     1
 90
       50
176
     1
290
     0
176
     1
 90
       50
176
     1
 62
   256
176
     0
 40
1.0
176
     0
 90
        2
176
     1
  1
strokes_ogs.tif
176
     1
290
     0
176
     1
 40
1.0
176
     1
 40
1.0
176
     1
  0
VISUALSTYLE
  5
3D
102
{ACAD_REACTORS
330
29
102
}
330
29
100
AcDbVisualStyle
  2
Shaded with edges
 70
    26
177
     3
291
     0
 70
    58
 90
        2
176
     1
 90
        2
176
     1
 90
        1
176
     1
 90
        2
176
     1
 40
0.6
176
     1
 40
30.0
176
     1
 62
     7
420
 16777215
176
     1
 90
        1
176
     1
 90
        2
176
     1
 62
     7
176
     1
 62
   257
176
     1
 90
        2
176
     1
 90
        1
176
     1
 40
1.0
176
     1
 90
        8
176
     1
 62
   257
176
     1
 40
1.0
176
     1
 90
        1
176
     1
 90
        6
176
     1
 90
        2
176
     1
 62
     7
176
     1
 90
        3
176
     1
 90
        0
176
     1
 90
        0
176
     1
290
     0
176
     1
 90
        5
176
     1
 40
0.0
176
     1
 90
        0
176
     1
290
     0
176
     1
290
     1
176
     1
290
     1
176
     1
290
     0
176
     1
290
     0
176
     1
290
     0
176
     1
290
     0
176
     1
290
     0
176
     1
290
     0
176
     1
 90
       50
176
     1
 40
0.0
176
     1
 40
1.0
176
     1
 90
        0
176
     1
 62
    18
420
        0
176
     1
 90
       50
176
     1
 90
        3
176
     1
 62
     5
420
      255
176
     1
290
     0
176
     1
 90
       50
176
     1
 90
       50
176
     1
 90
       50
176
     1
290
     0
176
     1
 90
       50
176
     1
 62
   256
176
     0
 40
1.0
176
     0
 90
        2
176
     1
  1
strokes_ogs.tif
176
     1
290
     0
176
     1
 40
1.0
176
     1
 40
1.0
176
     1
  0
VISUALSTYLE
  5
3A
102
{ACAD_REACTORS
330
29
102
}
330
29
100
AcDbVisualStyle
  2
Shades of Gray
 70
    23
177
     3
291
     0
 70
    58
 90
        2
176
     1
 90
        2
176
     1
 90
        3
176
     1
 90
        0
176
     1
 40
0.6
176
     1
 40
30.0
176
     1
 62
     7
420
 16777215
176
     1
 90
        2
176
     1
 90
        2
176
     1
 62
     7
176
     1
 62
     7
176
     1
 90
        1
176
     1
 90
        1
176
     1
 40
40.0
176
     1
 90
        8
176
     1
 62
     7
176
     1
 40
1.0
176
     1
 90
        1
176
     1
 90
        6
176
     1
 90
        2
176
     1
 62
     7
176
     1
 90
        3
176
     1
 90
        0
176
     1
 90
        0
176
     1
290
     0
176
     1
 90
        1
176
     1
 40
0.0
176
     1
 90
        0
176
     1
290
     0
176
     1
290
     1
176
     1
290
     1
176
     1
290
     0
176
     1
290
     0
176
     1
290
     0
176
     1
290
     0
176
     1
290
     0
176
     1
290
     0
176
     1
 90
       50
176
     1
 40
0.0
176
     1
 40
1.0
176
     1
 90
        0
176
     1
 62
    18
420
        0
176
     1
 90
       50
176
     1
 90
        3
176
     1
 62
     5
420
      255
176
     1
290
     0
176
     1
 90
       50
176
     1
 90
       50
176
     1
 90
       50
176
     1
290
     0
176
     1
 90
       50
176
     1
 62
   256
176
     0
 40
1.0
176
     0
 90
        2
176
     1
  1
strokes_ogs.tif
176
     1
290
     0
176
     1
 40
1.0
176
     1
 40
1.0
176
     1
  0
VISUALSTYLE
  5
3B
102
{ACAD_REACTORS
330
29
102
}
330
29
100
AcDbVisualStyle
  2
Sketchy
 70
    24
177
     3
291
     0
 70
    58
 90
        1
176
     1
 90
        2
176
     1
 90
        2
176
     1
 90
        0
176
     1
 40
0.6
176
     1
 40
30.0
176
     1
 62
     7
420
 16777215
176
     1
 90
        2
176
     1
 90
        2
176
     1
 62
     7
176
     1
 62
     7
176
     1
 90
        1
176
     1
 90
        1
176
     1
 40
40.0
176
     1
 90
       11
176
     1
 62
     7
176
     1
 40
1.0
176
     1
 90
        1
176
     1
 90
        6
176
     1
 90
        2
176
     1
 62
     7
176
     1
 90
        6
176
     1
 90
        0
176
     1
 90
        0
176
     1
290
     0
176
     1
 90
        1
176
     1
 40
0.0
176
     1
 90
        0
176
     1
290
     0
176
     1
290
     1
176
     1
290
     1
176
     1
290
     0
176
     1
290
     0
176
     1
290
     0
176
     1
290
     0
176
     1
290
     0
176
     1
290
     0
176
     1
 90
       50
176
     1
 40
0.0
176
     1
 40
1.0
176
     1
 90
        0
176
     1
 62
    18
420
        0
176
     1
 90
       50
176
     1
 90
        3
176
     1
 62
     5
420
      255
176
     1
290
     0
176
     1
 90
       50
176
     1
 90
       50
176
     1
 90
       50
176
     1
290
     0
176
     1
 90
       50
176
     1
 62
   256
176
     0
 40
1.0
176
     0
 90
        2
176
     1
  1
strokes_ogs.tif
176
     1
290
     0
176
     1
 40
1.0
176
     1
 40
1.0
176
     1
  0
VISUALSTYLE
  5
36
102
{ACAD_REACTORS
330
29
102
}
330
29
100
AcDbVisualStyle
  2
Thicken
 70
    13
177
     3
291
     1
 70
    58
 90
        2
176
     1
 90
        2
176
     1
 90
        0
176
     1
 90
        0
176
     1
 40
0.6
176
     1
 40
30.0
176
     1
 62
     7
420
 16777215
176
     1
 90
        1
176
     1
 90
        4
176
     1
 62
     7
176
     1
 62
   257
176
     1
 90
        1
176
     1
 90
        1
176
     1
 40
1.0
176
     1
 90
       12
176
     1
 62
     7
176
     1
 40
1.0
176
     1
 90
        1
176
     1
 90
        6
176
     1
 90
        2
176
     1
 62
     7
176
     1
 90
        5
176
     1
 90
        0
176
     1
 90
        0
176
     1
290
     0
176
     1
 90
        1
176
     1
 40
0.0
176
     1
 90
        0
176
     1
290
     0
176
     1
290
     1
176
     1
290
     1
176
     1
290
     0
176
     1
290
     0
176
     1
290
     0
176
     1
290
     0
176
     1
290
     0
176
     1
290
     0
176
     1
 90
       50
176
     1
 40
0.0
176
     1
 40
1.0
176
     1
 90
        0
176
     1
 62
    18
420
        0
176
     1
 90
       50
176
     1
 90
        3
176
     1
 62
     5
420
      255
176
     1
290
     0
176
     1
 90
       50
176
     1
 90
       50
176
     1
 90
       50
176
     1
290
     0
176
     1
 90
       50
176
     1
 62
   256
176
     0
 40
1.0
176
     0
 90
        2
176
     1
  1
strokes_ogs.tif
176
     1
290
     0
176
     1
 40
1.0
176
     1
 40
1.0
176
     1
  0
VISUALSTYLE
  5
30
102
{ACAD_REACTORS
330
29
102
}
330
29
100
AcDbVisualStyle
  2
Wireframe
 70
     5
177
     3
291
     0
 70
    58
 90
        0
176
     1
 90
        2
176
     1
 90
        0
176
     1
 90
        0
176
     1
 40
0.6
176
     1
 40
30.0
176
     1
 62
     7
420
 16777215
176
     1
 90
        1
176
     1
 90
        4
176
     1
 62
     7
176
     1
 62
   257
176
     1
 90
        1
176
     1
 90
        1
176
     1
 40
1.0
176
     1
 90
        0
176
     1
 62
   257
176
     1
 40
1.0
176
     1
 90
        1
176
     1
 90
        6
176
     1
 90
        2
176
     1
 62
     7
176
     1
 90
        3
176
     1
 90
        0
176
     1
 90
        0
176
     1
290
     0
176
     1
 90
        1
176
     1
 40
0.0
176
     1
 90
        0
176
     1
290
     0
176
     1
290
     1
176
     1
290
     1
176
     1
290
     0
176
     1
290
     0
176
     1
290
     0
176
     1
290
     0
176
     1
290
     0
176
     1
290
     0
176
     1
 90
       50
176
     1
 40
0.0
176
     1
 40
1.0
176
     1
 90
        0
176
     1
 62
    18
420
        0
176
     1
 90
       50
176
     1
 90
        3
176
     1
 62
     5
420
      255
176
     1
290
     0
176
     1
 90
       50
176
     1
 90
       50
176
     1
 90
       50
176
     1
290
     0
176
     1
 90
       50
176
     1
 62
   256
176
     0
 40
1.0
176
     0
 90
        2
176
     1
  1
strokes_ogs.tif
176
     1
290
     0
176
     1
 40
1.0
176
     1
 40
1.0
176
     1
  0
VISUALSTYLE
  5
3C
102
{ACAD_REACTORS
330
29
102
}
330
29
100
AcDbVisualStyle
  2
X-Ray
 70
    25
177
     3
291
     0
 70
    58
 90
        2
176
     1
 90
        2
176
     1
 90
        1
176
     1
 90
        1
176
     1
 40
0.5
176
     1
 40
30.0
176
     1
 62
     7
420
 16777215
176
     1
 90
        1
176
     1
 90
        0
176
     1
 62
     7
176
     1
 62
   257
176
     1
 90
        1
176
     1
 90
        1
176
     1
 40
1.0
176
     1
 90
        8
176
     1
 62
     7
176
     1
 40
1.0
176
     1
 90
        1
176
     1
 90
        6
176
     1
 90
        2
176
     1
 62
     7
176
     1
 90
        3
176
     1
 90
        0
176
     1
 90
        0
176
     1
290
     0
176
     1
 90
       13
176
     1
 40
0.0
176
     1
 90
        0
176
     1
290
     0
176
     1
290
     1
176
     1
290
     1
176
     1
290
     0
176
     1
290
     0
176
     1
290
     0
176
     1
290
     0
176
     1
290
     0
176
     1
290
     0
176
     1
 90
       50
176
     1
 40
0.0
176
     1
 40
1.0
176
     1
 90
        0
176
     1
 62
    18
420
        0
176
     1
 90
       50
176
     1
 90
        3
176
     1
 62
     5
420
      255
176
     1
290
     0
176
     1
 90
       50
176
     1
 90
       50
176
     1
 90
       50
176
     1
290
     0
176
     1
 90
       50
176
     1
 62
   256
176
     0
 40
1.0
176
     0
 90
        2
176
     1
  1
strokes_ogs.tif
176
     1
290
     0
176
     1
 40
1.0
176
     1
 40
1.0
176
     1
  0
DICTIONARYVAR
  5
1C8
102
{ACAD_REACTORS
330
1C3
102
}
330
1C3
100
DictionaryVariables
280
     0
  1
1:1
  0
DICTIONARYVAR
  5
1C5
102
{ACAD_REACTORS
330
1C3
102
}
330
1C3
100
DictionaryVariables
280
     0
  1
STANDARD
  0
DICTIONARYVAR
  5
1C4
102
{ACAD_REACTORS
330
1C3
102
}
330
1C3
100
DictionaryVariables
280
     0
  1
STANDARD
  0
DICTIONARYVAR
  5
1C6
102
{ACAD_REACTORS
330
1C3
102
}
330
1C3
100
DictionaryVariables
280
     0
  1
Imperial24
  0
DICTIONARYVAR
  5
1C7
102
{ACAD_REACTORS
330
1C3
102
}
330
1C3
100
DictionaryVariables
280
     0
  1
Imperial24
  0
DICTIONARY
  5
1A
330
19
100
AcDbDictionary
280
     1
281
     1
  3
BUMPTILE
360
1C
  3
DIFFUSETILE
360
1B
  3
OPACITYTILE
360
1F
  3
REFLECTIONTILE
360
1E
  3
REFRACTIONTILE
360
20
  3
SPECULARTILE
360
1D
  0
DICTIONARY
  5
12
330
11
100
AcDbDictionary
280
     1
281
     1
  3
BUMPTILE
360
14
  3
DIFFUSETILE
360
13
  3
OPACITYTILE
360
17
  3
REFLECTIONTILE
360
16
  3
REFRACTIONTILE
360
18
  3
SPECULARTILE
360
15
  0
DICTIONARY
  5
22
330
21
100
AcDbDictionary
280
     1
281
     1
  3
BUMPTILE
360
24
  3
DIFFUSETILE
360
23
  3
OPACITYTILE
360
27
  3
REFLECTIONTILE
360
26
  3
REFRACTIONTILE
360
28
  3
SPECULARTILE
360
25
  0
DICTIONARY
  5
1C9
330
65
100
AcDbDictionary
280
     1
281
     1
  3
ACAD_ROUNDTRIP_2008_TABLESTYLE_CELLSTYLEMAP
360
1CA
  0
XRECORD
  5
1C
102
{ACAD_REACTORS
330
1A
102
}
330
1A
100
AcDbXrecord
280
     1
270
     1
271
     1
  0
XRECORD
  5
1B
102
{ACAD_REACTORS
330
1A
102
}
330
1A
100
AcDbXrecord
280
     1
270
     1
271
     1
  0
XRECORD
  5
1F
102
{ACAD_REACTORS
330
1A
102
}
330
1A
100
AcDbXrecord
280
     1
270
     1
271
     1
  0
XRECORD
  5
1E
102
{ACAD_REACTORS
330
1A
102
}
330
1A
100
AcDbXrecord
280
     1
270
     1
271
     1
  0
XRECORD
  5
20
102
{ACAD_REACTORS
330
1A
102
}
330
1A
100
AcDbXrecord
280
     1
270
     1
271
     1
  0
XRECORD
  5
1D
102
{ACAD_REACTORS
330
1A
102
}
330
1A
100
AcDbXrecord
280
     1
270
     1
271
     1
  0
XRECORD
  5
14
102
{ACAD_REACTORS
330
12
102
}
330
12
100
AcDbXrecord
280
     1
270
     1
271
     1
  0
XRECORD
  5
13
102
{ACAD_REACTORS
330
12
102
}
330
12
100
AcDbXrecord
280
     1
270
     1
271
     1
  0
XRECORD
  5
17
102
{ACAD_REACTORS
330
12
102
}
330
12
100
AcDbXrecord
280
     1
270
     1
271
     1
  0
XRECORD
  5
16
102
{ACAD_REACTORS
330
12
102
}
330
12
100
AcDbXrecord
280
     1
270
     1
271
     1
  0
XRECORD
  5
18
102
{ACAD_REACTORS
330
12
102
}
330
12
100
AcDbXrecord
280
     1
270
     1
271
     1
  0
XRECORD
  5
15
102
{ACAD_REACTORS
330
12
102
}
330
12
100
AcDbXrecord
280
     1
270
     1
271
     1
  0
XRECORD
  5
24
102
{ACAD_REACTORS
330
22
102
}
330
22
100
AcDbXrecord
280
     1
270
     1
271
     1
  0
XRECORD
  5
23
102
{ACAD_REACTORS
330
22
102
}
330
22
100
AcDbXrecord
280
     1
270
     1
271
     1
  0
XRECORD
  5
27
102
{ACAD_REACTORS
330
22
102
}
330
22
100
AcDbXrecord
280
     1
270
     1
271
     1
  0
XRECORD
  5
26
102
{ACAD_REACTORS
330
22
102
}
330
22
100
AcDbXrecord
280
     1
270
     1
271
     1
  0
XRECORD
  5
28
102
{ACAD_REACTORS
330
22
102
}
330
22
100
AcDbXrecord
280
     1
270
     1
271
     1
  0
XRECORD
  5
25
102
{ACAD_REACTORS
330
22
102
}
330
22
100
AcDbXrecord
280
     1
270
     1
271
     1
  0
CELLSTYLEMAP
  5
1CA
102
{ACAD_REACTORS
330
1C9
102
}
330
1C9
100
AcDbCellStyleMap
 90
        3
300
CELLSTYLE
  1
TABLEFORMAT_BEGIN
 90
        5
170
     1
 91
        0
 92
    32768
 62
   257
 93
        1
300
CONTENTFORMAT
  1
CONTENTFORMAT_BEGIN
 90
        0
 91
        0
 92
      512
 93
        0
300

 40
0.0
140
1.0
 94
        5
 62
     0
340
55
144
0.25
309
CONTENTFORMAT_END
171
     0
 94
        0
309
TABLEFORMAT_END
  1
CELLSTYLE_BEGIN
 90
        1
 91
        1
300
_TITLE
309
CELLSTYLE_END
300
CELLSTYLE
  1
TABLEFORMAT_BEGIN
 90
        5
170
     1
 91
        0
 92
        0
 62
   257
 93
        1
300
CONTENTFORMAT
  1
CONTENTFORMAT_BEGIN
 90
        0
 91
        0
 92
      512
 93
        0
300

 40
0.0
140
1.0
 94
        5
 62
     0
340
55
144
0.18
309
CONTENTFORMAT_END
171
     0
 94
        0
309
TABLEFORMAT_END
  1
CELLSTYLE_BEGIN
 90
        2
 91
        1
300
_HEADER
309
CELLSTYLE_END
300
CELLSTYLE
  1
TABLEFORMAT_BEGIN
 90
        5
170
     1
 91
        0
 92
        0
 62
   257
 93
        1
300
CONTENTFORMAT
  1
CONTENTFORMAT_BEGIN
 90
        0
 91
        0
 92
      512
 93
        0
300

 40
0.0
140
1.0
 94
        2
 62
     0
340
55
144
0.18
309
CONTENTFORMAT_END
171
     0
 94
        0
309
TABLEFORMAT_END
  1
CELLSTYLE_BEGIN
 90
        3
 91
        2
300
_DATA
309
CELLSTYLE_END
  0
ENDSEC
  0
EOF
